ISO-10303-21;
HEADER;
FILE_DESCRIPTION (( 'STEP AP214' ),
    '1' );
FILE_NAME ('010425900d.STEP',
    '2018-09-03T11:50:28',
    ( 'admin' ),
    ( 'Hewlett-Packard Company' ),
    'SwSTEP 2.0',
    'SolidWorks 2017',
    '' );
FILE_SCHEMA (( 'AUTOMOTIVE_DESIGN' ));
ENDSEC;

DATA;
#1 = EDGE_LOOP ( 'NONE', ( #83, #110 ) ) ;
#2 = FILL_AREA_STYLE ('',( #64 ) ) ;
#3 = PRODUCT_DEFINITION_CONTEXT ( 'detailed design', #36, 'design' ) ;
#4 =( GEOMETRIC_REPRESENTATION_CONTEXT ( 3 ) GLOBAL_UNCERTAINTY_ASSIGNED_CONTEXT ( ( #91 ) ) GLOBAL_UNIT_ASSIGNED_CONTEXT ( ( #210, #193, #93 ) ) REPRESENTATION_CONTEXT ( 'NONE', 'WORKASPACE' ) );
#5 = ORIENTED_EDGE ( 'NONE', *, *, #13, .F. ) ;
#6 = AXIS2_PLACEMENT_3D ( 'NONE', #112, #212, #220 ) ;
#7 = FACE_OUTER_BOUND ( 'NONE', #203, .T. ) ;
#8 =( LENGTH_UNIT ( ) NAMED_UNIT ( * ) SI_UNIT ( .MILLI., .METRE. ) );
#9 = CIRCLE ( 'NONE', #199, 41.00000000000000000 ) ;
#10 = VECTOR ( 'NONE', #161, 1000.000000000000000 ) ;
#11 = MECHANICAL_DESIGN_GEOMETRIC_PRESENTATION_REPRESENTATION (  '', ( #37 ), #196 ) ;
#12 = ADVANCED_FACE ( 'NONE', ( #84 ), #153, .T. ) ;
#13 = EDGE_CURVE ( 'NONE', #22, #29, #71, .T. ) ;
#14 = EDGE_LOOP ( 'NONE', ( #74, #106 ) ) ;
#15 = VECTOR ( 'NONE', #103, 1000.000000000000000 ) ;
#16 = ORIENTED_EDGE ( 'NONE', *, *, #62, .T. ) ;
#17 = FACE_OUTER_BOUND ( 'NONE', #207, .T. ) ;
#18 = AXIS2_PLACEMENT_3D ( 'NONE', #87, #68, #19 ) ;
#19 = DIRECTION ( 'NONE',  ( 1.000000000000000000, 0.0000000000000000000, 0.0000000000000000000 ) ) ;
#20 = CARTESIAN_POINT ( 'NONE',  ( 40.77750000000001100, 4.993803485223120800E-015, 8.474999999999999600 ) ) ;
#21 = LINE ( 'NONE', #90, #152 ) ;
#22 = VERTEX_POINT ( 'NONE', #105 ) ;
#23 = DIRECTION ( 'NONE',  ( -1.000000000000000000, 0.0000000000000000000, 0.0000000000000000000 ) ) ;
#24 = FACE_OUTER_BOUND ( 'NONE', #176, .T. ) ;
#25 = DIRECTION ( 'NONE',  ( 0.0000000000000000000, 0.0000000000000000000, 1.000000000000000000 ) ) ;
#26 =( NAMED_UNIT ( * ) PLANE_ANGLE_UNIT ( ) SI_UNIT ( $, .RADIAN. ) );
#27 = UNCERTAINTY_MEASURE_WITH_UNIT (LENGTH_MEASURE( 1.000000000000000100E-005 ), #8, 'distance_accuracy_value', 'NONE');
#28 =( NAMED_UNIT ( * ) SI_UNIT ( $, .STERADIAN. ) SOLID_ANGLE_UNIT ( ) );
#29 = VERTEX_POINT ( 'NONE', #167 ) ;
#30 = DIRECTION ( 'NONE',  ( 0.0000000000000000000, 0.0000000000000000000, 1.000000000000000000 ) ) ;
#31 = PRODUCT_DEFINITION ( 'UNKNOWN', '', #137, #3 ) ;
#32 = DIRECTION ( 'NONE',  ( -1.000000000000000000, 0.0000000000000000000, 0.0000000000000000000 ) ) ;
#33 = EDGE_CURVE ( 'NONE', #29, #102, #58, .T. ) ;
#34 = ORIENTED_EDGE ( 'NONE', *, *, #163, .F. ) ;
#35 = DIRECTION ( 'NONE',  ( -0.0000000000000000000, -0.0000000000000000000, -1.000000000000000000 ) ) ;
#36 = APPLICATION_CONTEXT ( 'automotive_design' ) ;
#37 = STYLED_ITEM ( 'NONE', ( #49 ), #124 ) ;
#38 = APPLICATION_PROTOCOL_DEFINITION ( 'draft international standard', 'automotive_design', 1998, #36 ) ;
#39 = PLANE ( 'NONE',  #214 ) ;
#40 = APPLICATION_CONTEXT ( 'automotive_design' ) ;
#41 = VERTEX_POINT ( 'NONE', #55 ) ;
#42 = PRODUCT_RELATED_PRODUCT_CATEGORY ( 'part', '', ( #198 ) ) ;
#43 = DIRECTION ( 'NONE',  ( 0.0000000000000000000, 0.0000000000000000000, 1.000000000000000000 ) ) ;
#44 = CARTESIAN_POINT ( 'NONE',  ( 0.0000000000000000000, 0.0000000000000000000, 0.0000000000000000000 ) ) ;
#45 = ORIENTED_EDGE ( 'NONE', *, *, #79, .F. ) ;
#46 = FILL_AREA_STYLE_COLOUR ( '', #134 ) ;
#47 = EDGE_CURVE ( 'NONE', #72, #204, #200, .T. ) ;
#48 = SURFACE_STYLE_USAGE ( .BOTH. , #56 ) ;
#49 = PRESENTATION_STYLE_ASSIGNMENT (( #48 ) ) ;
#50 = ORIENTED_EDGE ( 'NONE', *, *, #13, .T. ) ;
#51 = CYLINDRICAL_SURFACE ( 'NONE', #100, 40.77750000000001100 ) ;
#52 = CYLINDRICAL_SURFACE ( 'NONE', #76, 41.00000000000000000 ) ;
#53 = DIRECTION ( 'NONE',  ( 0.0000000000000000000, 0.0000000000000000000, 1.000000000000000000 ) ) ;
#54 = VERTEX_POINT ( 'NONE', #151 ) ;
#55 = CARTESIAN_POINT ( 'NONE',  ( -40.77750000000001100, 0.0000000000000000000, 8.474999999999999600 ) ) ;
#56 = SURFACE_SIDE_STYLE ('',( #69 ) ) ;
#57 = AXIS2_PLACEMENT_3D ( 'NONE', #141, #183, #144 ) ;
#58 = CIRCLE ( 'NONE', #94, 41.00000000000000000 ) ;
#59 = EDGE_CURVE ( 'NONE', #102, #29, #131, .T. ) ;
#60 = FACE_OUTER_BOUND ( 'NONE', #211, .T. ) ;
#61 = ADVANCED_FACE ( 'NONE', ( #60 ), #51, .T. ) ;
#62 = EDGE_CURVE ( 'NONE', #41, #54, #63, .T. ) ;
#63 = LINE ( 'NONE', #150, #107 ) ;
#64 = FILL_AREA_STYLE_COLOUR ( '', #78 ) ;
#65 = EDGE_LOOP ( 'NONE', ( #128, #92, #50, #120 ) ) ;
#66 = CARTESIAN_POINT ( 'NONE',  ( 0.0000000000000000000, 0.0000000000000000000, 8.474999999999999600 ) ) ;
#67 = FACE_BOUND ( 'NONE', #190, .T. ) ;
#68 = DIRECTION ( 'NONE',  ( 0.0000000000000000000, 0.0000000000000000000, 1.000000000000000000 ) ) ;
#69 = SURFACE_STYLE_FILL_AREA ( #2 ) ;
#70 = CIRCLE ( 'NONE', #6, 40.77750000000001100 ) ;
#71 = LINE ( 'NONE', #88, #15 ) ;
#72 = VERTEX_POINT ( 'NONE', #20 ) ;
#73 = ADVANCED_FACE ( 'NONE', ( #17 ), #52, .T. ) ;
#74 = ORIENTED_EDGE ( 'NONE', *, *, #175, .T. ) ;
#75 = AXIS2_PLACEMENT_3D ( 'NONE', #159, #30, #140 ) ;
#76 = AXIS2_PLACEMENT_3D ( 'NONE', #85, #125, #165 ) ;
#77 = ORIENTED_EDGE ( 'NONE', *, *, #59, .F. ) ;
#78 = COLOUR_RGB ( '',0.7921568627450980000, 0.8196078431372548800, 0.9333333333333333500 ) ;
#79 = EDGE_CURVE ( 'NONE', #72, #41, #81, .T. ) ;
#80 = DIRECTION ( 'NONE',  ( 1.000000000000000000, 0.0000000000000000000, -0.0000000000000000000 ) ) ;
#81 = CIRCLE ( 'NONE', #18, 40.77750000000001100 ) ;
#82 = PRODUCT_DEFINITION_SHAPE ( 'NONE', 'NONE',  #31 ) ;
#83 = ORIENTED_EDGE ( 'NONE', *, *, #184, .T. ) ;
#84 = FACE_OUTER_BOUND ( 'NONE', #14, .T. ) ;
#85 = CARTESIAN_POINT ( 'NONE',  ( 0.0000000000000000000, 0.0000000000000000000, 5.682999999999999800 ) ) ;
#86 =( NAMED_UNIT ( * ) PLANE_ANGLE_UNIT ( ) SI_UNIT ( $, .RADIAN. ) );
#87 = CARTESIAN_POINT ( 'NONE',  ( 0.0000000000000000000, 0.0000000000000000000, 8.474999999999999600 ) ) ;
#88 = CARTESIAN_POINT ( 'NONE',  ( -41.00000000000000000, 0.0000000000000000000, 5.682999999999999800 ) ) ;
#89 = CARTESIAN_POINT ( 'NONE',  ( 40.77750000000001100, 4.993803485223120800E-015, 5.682999999999999800 ) ) ;
#90 = CARTESIAN_POINT ( 'NONE',  ( 41.00000000000000000, 5.021051876504149000E-015, 5.682999999999999800 ) ) ;
#91 = UNCERTAINTY_MEASURE_WITH_UNIT (LENGTH_MEASURE( 1.000000000000000100E-005 ), #210, 'distance_accuracy_value', 'NONE');
#92 = ORIENTED_EDGE ( 'NONE', *, *, #184, .F. ) ;
#93 =( NAMED_UNIT ( * ) SI_UNIT ( $, .STERADIAN. ) SOLID_ANGLE_UNIT ( ) );
#94 = AXIS2_PLACEMENT_3D ( 'NONE', #201, #188, #186 ) ;
#95 = PLANE ( 'NONE',  #181 ) ;
#96 = ORIENTED_EDGE ( 'NONE', *, *, #33, .F. ) ;
#97 = MECHANICAL_DESIGN_GEOMETRIC_PRESENTATION_REPRESENTATION (  '', ( #129 ), #4 ) ;
#98 =( LENGTH_UNIT ( ) NAMED_UNIT ( * ) SI_UNIT ( .MILLI., .METRE. ) );
#99 = DIRECTION ( 'NONE',  ( 0.0000000000000000000, 0.0000000000000000000, 1.000000000000000000 ) ) ;
#100 = AXIS2_PLACEMENT_3D ( 'NONE', #155, #126, #23 ) ;
#101 = CIRCLE ( 'NONE', #168, 40.77750000000001100 ) ;
#102 = VERTEX_POINT ( 'NONE', #109 ) ;
#103 = DIRECTION ( 'NONE',  ( -0.0000000000000000000, -0.0000000000000000000, -1.000000000000000000 ) ) ;
#104 = AXIS2_PLACEMENT_3D ( 'NONE', #44, #216, #179 ) ;
#105 = CARTESIAN_POINT ( 'NONE',  ( -41.00000000000000000, 0.0000000000000000000, 5.682999999999999800 ) ) ;
#106 = ORIENTED_EDGE ( 'NONE', *, *, #79, .T. ) ;
#107 = VECTOR ( 'NONE', #145, 1000.000000000000000 ) ;
#108 = AXIS2_PLACEMENT_3D ( 'NONE', #217, #177, #172 ) ;
#109 = CARTESIAN_POINT ( 'NONE',  ( 41.00000000000000000, 5.021051876504149000E-015, 0.0000000000000000000 ) ) ;
#110 = ORIENTED_EDGE ( 'NONE', *, *, #163, .T. ) ;
#111 = ORIENTED_EDGE ( 'NONE', *, *, #175, .F. ) ;
#112 = CARTESIAN_POINT ( 'NONE',  ( 0.0000000000000000000, 0.0000000000000000000, 5.682999999999999800 ) ) ;
#113 = CLOSED_SHELL ( 'NONE', ( #219, #73, #206, #132, #156, #61, #12 ) ) ;
#114 = DIRECTION ( 'NONE',  ( 1.000000000000000000, 0.0000000000000000000, 0.0000000000000000000 ) ) ;
#115 = EDGE_CURVE ( 'NONE', #174, #102, #21, .T. ) ;
#116 = DIRECTION ( 'NONE',  ( 0.0000000000000000000, 0.0000000000000000000, 1.000000000000000000 ) ) ;
#117 = EDGE_CURVE ( 'NONE', #54, #204, #70, .T. ) ;
#118 = CARTESIAN_POINT ( 'NONE',  ( 0.0000000000000000000, 0.0000000000000000000, 5.682999999999999800 ) ) ;
#119 = SURFACE_STYLE_FILL_AREA ( #130 ) ;
#120 = ORIENTED_EDGE ( 'NONE', *, *, #33, .T. ) ;
#121 = CARTESIAN_POINT ( 'NONE',  ( 0.0000000000000000000, 0.0000000000000000000, 5.682999999999999800 ) ) ;
#122 = CARTESIAN_POINT ( 'NONE',  ( 0.0000000000000000000, 0.0000000000000000000, 5.682999999999999800 ) ) ;
#123 = CARTESIAN_POINT ( 'NONE',  ( 41.00000000000000000, 5.021051876504149000E-015, 5.682999999999999800 ) ) ;
#124 = ADVANCED_BREP_SHAPE_REPRESENTATION ( '010425900d', ( #185, #75 ), #205 ) ;
#125 = DIRECTION ( 'NONE',  ( -0.0000000000000000000, -0.0000000000000000000, -1.000000000000000000 ) ) ;
#126 = DIRECTION ( 'NONE',  ( -0.0000000000000000000, -0.0000000000000000000, -1.000000000000000000 ) ) ;
#127 = ORIENTED_EDGE ( 'NONE', *, *, #171, .T. ) ;
#128 = ORIENTED_EDGE ( 'NONE', *, *, #115, .F. ) ;
#129 = STYLED_ITEM ( 'NONE', ( #154 ), #185 ) ;
#130 = FILL_AREA_STYLE ('',( #46 ) ) ;
#131 = CIRCLE ( 'NONE', #104, 41.00000000000000000 ) ;
#132 = ADVANCED_FACE ( 'NONE', ( #67, #162 ), #39, .T. ) ;
#133 = AXIS2_PLACEMENT_3D ( 'NONE', #208, #191, #32 ) ;
#134 = COLOUR_RGB ( '',0.7921568627450980000, 0.8196078431372548800, 0.9333333333333333500 ) ;
#135 = ORIENTED_EDGE ( 'NONE', *, *, #117, .T. ) ;
#136 = CARTESIAN_POINT ( 'NONE',  ( 0.0000000000000000000, 0.0000000000000000000, 5.682999999999999800 ) ) ;
#137 = PRODUCT_DEFINITION_FORMATION_WITH_SPECIFIED_SOURCE ( 'ANY', '', #198, .NOT_KNOWN. ) ;
#138 = SHAPE_DEFINITION_REPRESENTATION ( #82, #124 ) ;
#139 = SURFACE_SIDE_STYLE ('',( #119 ) ) ;
#140 = DIRECTION ( 'NONE',  ( 1.000000000000000000, 0.0000000000000000000, 0.0000000000000000000 ) ) ;
#141 = CARTESIAN_POINT ( 'NONE',  ( 0.0000000000000000000, 0.0000000000000000000, 5.682999999999999800 ) ) ;
#142 = AXIS2_PLACEMENT_3D ( 'NONE', #122, #194, #197 ) ;
#143 = CYLINDRICAL_SURFACE ( 'NONE', #133, 40.77750000000001100 ) ;
#144 = DIRECTION ( 'NONE',  ( 1.000000000000000000, 0.0000000000000000000, 0.0000000000000000000 ) ) ;
#145 = DIRECTION ( 'NONE',  ( -0.0000000000000000000, -0.0000000000000000000, -1.000000000000000000 ) ) ;
#146 = SURFACE_STYLE_USAGE ( .BOTH. , #139 ) ;
#147 = PRODUCT_CONTEXT ( 'NONE', #40, 'mechanical' ) ;
#148 = ORIENTED_EDGE ( 'NONE', *, *, #171, .F. ) ;
#149 = PRESENTATION_LAYER_ASSIGNMENT (  '', '', ( #129 ) ) ;
#150 = CARTESIAN_POINT ( 'NONE',  ( -40.77750000000001100, 0.0000000000000000000, 8.474999999999999600 ) ) ;
#151 = CARTESIAN_POINT ( 'NONE',  ( -40.77750000000001100, 0.0000000000000000000, 5.682999999999999800 ) ) ;
#152 = VECTOR ( 'NONE', #35, 1000.000000000000000 ) ;
#153 = PLANE ( 'NONE',  #108 ) ;
#154 = PRESENTATION_STYLE_ASSIGNMENT (( #146 ) ) ;
#155 = CARTESIAN_POINT ( 'NONE',  ( 0.0000000000000000000, 0.0000000000000000000, 8.474999999999999600 ) ) ;
#156 = ADVANCED_FACE ( 'NONE', ( #24 ), #95, .F. ) ;
#157 = CYLINDRICAL_SURFACE ( 'NONE', #142, 41.00000000000000000 ) ;
#158 = APPLICATION_PROTOCOL_DEFINITION ( 'draft international standard', 'automotive_design', 1998, #40 ) ;
#159 = CARTESIAN_POINT ( 'NONE',  ( 0.0000000000000000000, 0.0000000000000000000, 0.0000000000000000000 ) ) ;
#160 = DIRECTION ( 'NONE',  ( 1.000000000000000000, 0.0000000000000000000, 0.0000000000000000000 ) ) ;
#161 = DIRECTION ( 'NONE',  ( -0.0000000000000000000, -0.0000000000000000000, -1.000000000000000000 ) ) ;
#162 = FACE_OUTER_BOUND ( 'NONE', #1, .T. ) ;
#163 = EDGE_CURVE ( 'NONE', #174, #22, #187, .T. ) ;
#164 = DIRECTION ( 'NONE',  ( 1.000000000000000000, 0.0000000000000000000, 0.0000000000000000000 ) ) ;
#165 = DIRECTION ( 'NONE',  ( -1.000000000000000000, 0.0000000000000000000, 0.0000000000000000000 ) ) ;
#166 = ORIENTED_EDGE ( 'NONE', *, *, #115, .T. ) ;
#167 = CARTESIAN_POINT ( 'NONE',  ( -41.00000000000000000, 0.0000000000000000000, 0.0000000000000000000 ) ) ;
#168 = AXIS2_PLACEMENT_3D ( 'NONE', #66, #25, #164 ) ;
#169 = PRESENTATION_LAYER_ASSIGNMENT (  '', '', ( #37 ) ) ;
#170 = ORIENTED_EDGE ( 'NONE', *, *, #47, .T. ) ;
#171 = EDGE_CURVE ( 'NONE', #204, #54, #195, .T. ) ;
#172 = DIRECTION ( 'NONE',  ( 1.000000000000000000, 0.0000000000000000000, -0.0000000000000000000 ) ) ;
#173 = FACE_OUTER_BOUND ( 'NONE', #65, .T. ) ;
#174 = VERTEX_POINT ( 'NONE', #123 ) ;
#175 = EDGE_CURVE ( 'NONE', #41, #72, #101, .T. ) ;
#176 = EDGE_LOOP ( 'NONE', ( #96, #77 ) ) ;
#177 = DIRECTION ( 'NONE',  ( 0.0000000000000000000, 0.0000000000000000000, 1.000000000000000000 ) ) ;
#178 = UNCERTAINTY_MEASURE_WITH_UNIT (LENGTH_MEASURE( 1.000000000000000100E-005 ), #98, 'distance_accuracy_value', 'NONE');
#179 = DIRECTION ( 'NONE',  ( 1.000000000000000000, 0.0000000000000000000, 0.0000000000000000000 ) ) ;
#180 = ORIENTED_EDGE ( 'NONE', *, *, #62, .F. ) ;
#181 = AXIS2_PLACEMENT_3D ( 'NONE', #189, #43, #80 ) ;
#182 = ORIENTED_EDGE ( 'NONE', *, *, #59, .T. ) ;
#183 = DIRECTION ( 'NONE',  ( 0.0000000000000000000, 0.0000000000000000000, 1.000000000000000000 ) ) ;
#184 = EDGE_CURVE ( 'NONE', #22, #174, #9, .T. ) ;
#185 = MANIFOLD_SOLID_BREP ( 'Aufsatz-Linear austragen2', #113 ) ;
#186 = DIRECTION ( 'NONE',  ( 1.000000000000000000, 0.0000000000000000000, 0.0000000000000000000 ) ) ;
#187 = CIRCLE ( 'NONE', #192, 41.00000000000000000 ) ;
#188 = DIRECTION ( 'NONE',  ( 0.0000000000000000000, 0.0000000000000000000, 1.000000000000000000 ) ) ;
#189 = CARTESIAN_POINT ( 'NONE',  ( 0.0000000000000000000, 0.0000000000000000000, 0.0000000000000000000 ) ) ;
#190 = EDGE_LOOP ( 'NONE', ( #202, #148 ) ) ;
#191 = DIRECTION ( 'NONE',  ( -0.0000000000000000000, -0.0000000000000000000, -1.000000000000000000 ) ) ;
#192 = AXIS2_PLACEMENT_3D ( 'NONE', #121, #53, #160 ) ;
#193 =( NAMED_UNIT ( * ) PLANE_ANGLE_UNIT ( ) SI_UNIT ( $, .RADIAN. ) );
#194 = DIRECTION ( 'NONE',  ( -0.0000000000000000000, -0.0000000000000000000, -1.000000000000000000 ) ) ;
#195 = CIRCLE ( 'NONE', #57, 40.77750000000001100 ) ;
#196 =( GEOMETRIC_REPRESENTATION_CONTEXT ( 3 ) GLOBAL_UNCERTAINTY_ASSIGNED_CONTEXT ( ( #178 ) ) GLOBAL_UNIT_ASSIGNED_CONTEXT ( ( #98, #26, #28 ) ) REPRESENTATION_CONTEXT ( 'NONE', 'WORKASPACE' ) );
#197 = DIRECTION ( 'NONE',  ( -1.000000000000000000, 0.0000000000000000000, 0.0000000000000000000 ) ) ;
#198 = PRODUCT ( '010425900d', '010425900d', '', ( #147 ) ) ;
#199 = AXIS2_PLACEMENT_3D ( 'NONE', #136, #99, #114 ) ;
#200 = LINE ( 'NONE', #213, #10 ) ;
#201 = CARTESIAN_POINT ( 'NONE',  ( 0.0000000000000000000, 0.0000000000000000000, 0.0000000000000000000 ) ) ;
#202 = ORIENTED_EDGE ( 'NONE', *, *, #117, .F. ) ;
#203 = EDGE_LOOP ( 'NONE', ( #45, #170, #127, #180 ) ) ;
#204 = VERTEX_POINT ( 'NONE', #89 ) ;
#205 =( GEOMETRIC_REPRESENTATION_CONTEXT ( 3 ) GLOBAL_UNCERTAINTY_ASSIGNED_CONTEXT ( ( #27 ) ) GLOBAL_UNIT_ASSIGNED_CONTEXT ( ( #8, #86, #218 ) ) REPRESENTATION_CONTEXT ( 'NONE', 'WORKASPACE' ) );
#206 = ADVANCED_FACE ( 'NONE', ( #173 ), #157, .T. ) ;
#207 = EDGE_LOOP ( 'NONE', ( #34, #166, #182, #5 ) ) ;
#208 = CARTESIAN_POINT ( 'NONE',  ( 0.0000000000000000000, 0.0000000000000000000, 8.474999999999999600 ) ) ;
#209 = DIRECTION ( 'NONE',  ( 1.000000000000000000, 0.0000000000000000000, -0.0000000000000000000 ) ) ;
#210 =( LENGTH_UNIT ( ) NAMED_UNIT ( * ) SI_UNIT ( .MILLI., .METRE. ) );
#211 = EDGE_LOOP ( 'NONE', ( #215, #111, #16, #135 ) ) ;
#212 = DIRECTION ( 'NONE',  ( 0.0000000000000000000, 0.0000000000000000000, 1.000000000000000000 ) ) ;
#213 = CARTESIAN_POINT ( 'NONE',  ( 40.77750000000001100, 4.993803485223120800E-015, 8.474999999999999600 ) ) ;
#214 = AXIS2_PLACEMENT_3D ( 'NONE', #118, #116, #209 ) ;
#215 = ORIENTED_EDGE ( 'NONE', *, *, #47, .F. ) ;
#216 = DIRECTION ( 'NONE',  ( 0.0000000000000000000, 0.0000000000000000000, 1.000000000000000000 ) ) ;
#217 = CARTESIAN_POINT ( 'NONE',  ( 0.0000000000000000000, 0.0000000000000000000, 8.474999999999999600 ) ) ;
#218 =( NAMED_UNIT ( * ) SI_UNIT ( $, .STERADIAN. ) SOLID_ANGLE_UNIT ( ) );
#219 = ADVANCED_FACE ( 'NONE', ( #7 ), #143, .T. ) ;
#220 = DIRECTION ( 'NONE',  ( 1.000000000000000000, 0.0000000000000000000, 0.0000000000000000000 ) ) ;
ENDSEC;
END-ISO-10303-21;
