ISO-10303-21;
HEADER;
FILE_DESCRIPTION (( 'STEP AP214' ),
    '1' );
FILE_NAME ('010525100d.STEP',
    '2018-09-04T12:52:57',
    ( 'admin' ),
    ( 'Hewlett-Packard Company' ),
    'SwSTEP 2.0',
    'SolidWorks 2017',
    '' );
FILE_SCHEMA (( 'AUTOMOTIVE_DESIGN' ));
ENDSEC;

DATA;
#1 = FILL_AREA_STYLE_COLOUR ( '', #97 ) ;
#2 = CYLINDRICAL_SURFACE ( 'NONE', #240, 41.00000000000000000 ) ;
#3 = DIRECTION ( 'NONE',  ( 0.0000000000000000000, 0.0000000000000000000, 1.000000000000000000 ) ) ;
#4 = VERTEX_POINT ( 'NONE', #190 ) ;
#5 = CARTESIAN_POINT ( 'NONE',  ( 0.0000000000000000000, 0.0000000000000000000, 0.0000000000000000000 ) ) ;
#6 = PLANE ( 'NONE',  #233 ) ;
#7 = CARTESIAN_POINT ( 'NONE',  ( 0.0000000000000000000, 0.0000000000000000000, -8.500000000000000000 ) ) ;
#8 = DIRECTION ( 'NONE',  ( -0.0000000000000000000, -0.0000000000000000000, -1.000000000000000000 ) ) ;
#9 = CYLINDRICAL_SURFACE ( 'NONE', #62, 40.77750000000001100 ) ;
#10 = DIRECTION ( 'NONE',  ( 0.0000000000000000000, 0.0000000000000000000, 1.000000000000000000 ) ) ;
#11 = DIRECTION ( 'NONE',  ( 1.000000000000000000, 0.0000000000000000000, 0.0000000000000000000 ) ) ;
#12 = FACE_OUTER_BOUND ( 'NONE', #196, .T. ) ;
#13 = FACE_OUTER_BOUND ( 'NONE', #320, .T. ) ;
#14 = CIRCLE ( 'NONE', #214, 40.77750000000001100 ) ;
#15 = VECTOR ( 'NONE', #125, 1000.000000000000000 ) ;
#16 = DIRECTION ( 'NONE',  ( 0.0000000000000000000, 0.0000000000000000000, 1.000000000000000000 ) ) ;
#17 = CIRCLE ( 'NONE', #281, 2.000000000000000000 ) ;
#18 = SHAPE_DEFINITION_REPRESENTATION ( #81, #286 ) ;
#19 = DIRECTION ( 'NONE',  ( -0.0000000000000000000, -0.0000000000000000000, 1.000000000000000000 ) ) ;
#20 =( NAMED_UNIT ( * ) PLANE_ANGLE_UNIT ( ) SI_UNIT ( $, .RADIAN. ) );
#21 = CARTESIAN_POINT ( 'NONE',  ( 0.0000000000000000000, 0.0000000000000000000, -8.005000000000000800 ) ) ;
#22 = AXIS2_PLACEMENT_3D ( 'NONE', #191, #10, #88 ) ;
#23 = SURFACE_STYLE_USAGE ( .BOTH. , #291 ) ;
#24 = CYLINDRICAL_SURFACE ( 'NONE', #318, 2.000000000000000000 ) ;
#25 = EDGE_CURVE ( 'NONE', #283, #265, #79, .T. ) ;
#26 = UNCERTAINTY_MEASURE_WITH_UNIT (LENGTH_MEASURE( 1.000000000000000100E-005 ), #50, 'distance_accuracy_value', 'NONE');
#27 = CARTESIAN_POINT ( 'NONE',  ( 2.000000000000000000, 0.0000000000000000000, 0.0000000000000000000 ) ) ;
#28 = ORIENTED_EDGE ( 'NONE', *, *, #71, .T. ) ;
#29 = CIRCLE ( 'NONE', #209, 40.77750000000001100 ) ;
#30 = CARTESIAN_POINT ( 'NONE',  ( 40.77750000000001100, 4.993803485223120800E-015, 8.474999999999999600 ) ) ;
#31 = FACE_OUTER_BOUND ( 'NONE', #343, .T. ) ;
#32 = FACE_OUTER_BOUND ( 'NONE', #330, .T. ) ;
#33 = AXIS2_PLACEMENT_3D ( 'NONE', #227, #76, #144 ) ;
#34 =( NAMED_UNIT ( * ) SI_UNIT ( $, .STERADIAN. ) SOLID_ANGLE_UNIT ( ) );
#35 = ORIENTED_EDGE ( 'NONE', *, *, #57, .T. ) ;
#36 = CIRCLE ( 'NONE', #242, 1.505000000000006300 ) ;
#37 = CARTESIAN_POINT ( 'NONE',  ( 0.0000000000000000000, 0.0000000000000000000, 8.474999999999999600 ) ) ;
#38 = ADVANCED_FACE ( 'NONE', ( #117 ), #9, .T. ) ;
#39 = DIRECTION ( 'NONE',  ( -1.000000000000000000, 0.0000000000000000000, 0.0000000000000000000 ) ) ;
#40 = CIRCLE ( 'NONE', #220, 40.77750000000001100 ) ;
#41 = APPLICATION_CONTEXT ( 'automotive_design' ) ;
#42 = CIRCLE ( 'NONE', #56, 2.000000000000000000 ) ;
#43 = SURFACE_STYLE_FILL_AREA ( #108 ) ;
#44 = DIRECTION ( 'NONE',  ( -0.0000000000000000000, -0.0000000000000000000, -1.000000000000000000 ) ) ;
#45 = DIRECTION ( 'NONE',  ( 1.000000000000000000, 0.0000000000000000000, 0.0000000000000000000 ) ) ;
#46 = FACE_OUTER_BOUND ( 'NONE', #155, .T. ) ;
#47 = CARTESIAN_POINT ( 'NONE',  ( 0.0000000000000000000, 0.0000000000000000000, 5.682999999999999800 ) ) ;
#48 = CIRCLE ( 'NONE', #272, 41.00000000000000000 ) ;
#49 = LINE ( 'NONE', #297, #54 ) ;
#50 =( LENGTH_UNIT ( ) NAMED_UNIT ( * ) SI_UNIT ( .MILLI., .METRE. ) );
#51 = DIRECTION ( 'NONE',  ( 0.0000000000000000000, 0.0000000000000000000, -1.000000000000000000 ) ) ;
#52 = ADVANCED_FACE ( 'NONE', ( #113 ), #317, .T. ) ;
#53 = VERTEX_POINT ( 'NONE', #69 ) ;
#54 = VECTOR ( 'NONE', #197, 1000.000000000000000 ) ;
#55 = CARTESIAN_POINT ( 'NONE',  ( 0.0000000000000000000, 0.0000000000000000000, 0.0000000000000000000 ) ) ;
#56 = AXIS2_PLACEMENT_3D ( 'NONE', #163, #165, #61 ) ;
#57 = EDGE_CURVE ( 'NONE', #4, #285, #189, .T. ) ;
#58 = ORIENTED_EDGE ( 'NONE', *, *, #348, .T. ) ;
#59 = VERTEX_POINT ( 'NONE', #223 ) ;
#60 = CARTESIAN_POINT ( 'NONE',  ( 41.00000000000000000, 5.021051876504149000E-015, 5.682999999999999800 ) ) ;
#61 = DIRECTION ( 'NONE',  ( 1.000000000000000000, 0.0000000000000000000, 0.0000000000000000000 ) ) ;
#62 = AXIS2_PLACEMENT_3D ( 'NONE', #312, #91, #210 ) ;
#63 = ORIENTED_EDGE ( 'NONE', *, *, #307, .F. ) ;
#64 = CARTESIAN_POINT ( 'NONE',  ( 0.0000000000000000000, 0.0000000000000000000, 5.682999999999999800 ) ) ;
#65 = EDGE_CURVE ( 'NONE', #78, #308, #14, .T. ) ;
#66 = ORIENTED_EDGE ( 'NONE', *, *, #239, .F. ) ;
#67 = CIRCLE ( 'NONE', #204, 40.77750000000001100 ) ;
#68 = CARTESIAN_POINT ( 'NONE',  ( 0.0000000000000000000, 0.0000000000000000000, 8.474999999999999600 ) ) ;
#69 = CARTESIAN_POINT ( 'NONE',  ( -1.505000000000006300, 2.146193515505740200E-016, -8.500000000000000000 ) ) ;
#70 = EDGE_CURVE ( 'NONE', #237, #346, #67, .T. ) ;
#71 = EDGE_CURVE ( 'NONE', #53, #283, #49, .T. ) ;
#72 = DIRECTION ( 'NONE',  ( 0.0000000000000000000, 0.0000000000000000000, 1.000000000000000000 ) ) ;
#73 = CARTESIAN_POINT ( 'NONE',  ( 0.0000000000000000000, 0.0000000000000000000, -8.500000000000000000 ) ) ;
#74 = DIRECTION ( 'NONE',  ( -1.000000000000000000, 0.0000000000000000000, 0.0000000000000000000 ) ) ;
#75 = ADVANCED_FACE ( 'NONE', ( #250 ), #2, .T. ) ;
#76 = DIRECTION ( 'NONE',  ( -0.0000000000000000000, -0.0000000000000000000, -1.000000000000000000 ) ) ;
#77 =( GEOMETRIC_REPRESENTATION_CONTEXT ( 3 ) GLOBAL_UNCERTAINTY_ASSIGNED_CONTEXT ( ( #276 ) ) GLOBAL_UNIT_ASSIGNED_CONTEXT ( ( #187, #148, #185 ) ) REPRESENTATION_CONTEXT ( 'NONE', 'WORKASPACE' ) );
#78 = VERTEX_POINT ( 'NONE', #344 ) ;
#79 = CIRCLE ( 'NONE', #256, 2.000000000000000000 ) ;
#80 = DIRECTION ( 'NONE',  ( 1.000000000000000000, 0.0000000000000000000, 0.0000000000000000000 ) ) ;
#81 = PRODUCT_DEFINITION_SHAPE ( 'NONE', 'NONE',  #99 ) ;
#82 = VECTOR ( 'NONE', #212, 1000.000000000000000 ) ;
#83 = AXIS2_PLACEMENT_3D ( 'NONE', #143, #339, #192 ) ;
#84 = CARTESIAN_POINT ( 'NONE',  ( -40.77750000000001100, 0.0000000000000000000, 8.474999999999999600 ) ) ;
#85 = DIRECTION ( 'NONE',  ( 1.000000000000000000, 0.0000000000000000000, -0.0000000000000000000 ) ) ;
#86 = DIRECTION ( 'NONE',  ( -0.0000000000000000000, -0.0000000000000000000, -1.000000000000000000 ) ) ;
#87 = DIRECTION ( 'NONE',  ( 0.0000000000000000000, 0.0000000000000000000, -1.000000000000000000 ) ) ;
#88 = DIRECTION ( 'NONE',  ( 1.000000000000000000, 0.0000000000000000000, 0.0000000000000000000 ) ) ;
#89 = MECHANICAL_DESIGN_GEOMETRIC_PRESENTATION_REPRESENTATION (  '', ( #128 ), #77 ) ;
#90 = DIRECTION ( 'NONE',  ( 0.0000000000000000000, 0.0000000000000000000, 1.000000000000000000 ) ) ;
#91 = DIRECTION ( 'NONE',  ( -0.0000000000000000000, -0.0000000000000000000, -1.000000000000000000 ) ) ;
#92 = DIRECTION ( 'NONE',  ( 1.000000000000000000, 0.0000000000000000000, 0.0000000000000000000 ) ) ;
#93 = FACE_BOUND ( 'NONE', #118, .T. ) ;
#94 = DIRECTION ( 'NONE',  ( 1.000000000000000000, 0.0000000000000000000, 0.0000000000000000000 ) ) ;
#95 = FACE_OUTER_BOUND ( 'NONE', #280, .T. ) ;
#96 = DIRECTION ( 'NONE',  ( -1.000000000000000000, 0.0000000000000000000, 0.0000000000000000000 ) ) ;
#97 = COLOUR_RGB ( '',0.7921568627450980000, 0.8196078431372548800, 0.9333333333333333500 ) ;
#98 = CARTESIAN_POINT ( 'NONE',  ( 0.0000000000000000000, 0.0000000000000000000, 0.0000000000000000000 ) ) ;
#99 = PRODUCT_DEFINITION ( 'UNKNOWN', '', #207, #328 ) ;
#100 = VECTOR ( 'NONE', #114, 1000.000000000000000 ) ;
#101 = EDGE_CURVE ( 'NONE', #249, #110, #48, .T. ) ;
#102 = CARTESIAN_POINT ( 'NONE',  ( 0.0000000000000000000, 0.0000000000000000000, 0.0000000000000000000 ) ) ;
#103 = CYLINDRICAL_SURFACE ( 'NONE', #33, 41.00000000000000000 ) ;
#104 = CARTESIAN_POINT ( 'NONE',  ( 1.505000000000006300, 0.0000000000000000000, -8.500000000000000000 ) ) ;
#105 = AXIS2_PLACEMENT_3D ( 'NONE', #264, #313, #287 ) ;
#106 =( GEOMETRIC_REPRESENTATION_CONTEXT ( 3 ) GLOBAL_UNCERTAINTY_ASSIGNED_CONTEXT ( ( #329 ) ) GLOBAL_UNIT_ASSIGNED_CONTEXT ( ( #129, #299, #198 ) ) REPRESENTATION_CONTEXT ( 'NONE', 'WORKASPACE' ) );
#107 = ORIENTED_EDGE ( 'NONE', *, *, #284, .T. ) ;
#108 = FILL_AREA_STYLE ('',( #1 ) ) ;
#109 = PRESENTATION_LAYER_ASSIGNMENT (  '', '', ( #128 ) ) ;
#110 = VERTEX_POINT ( 'NONE', #319 ) ;
#111 = PLANE ( 'NONE',  #332 ) ;
#112 = CARTESIAN_POINT ( 'NONE',  ( -41.00000000000000000, 0.0000000000000000000, 5.682999999999999800 ) ) ;
#113 = FACE_OUTER_BOUND ( 'NONE', #225, .T. ) ;
#114 = DIRECTION ( 'NONE',  ( -0.0000000000000000000, -0.0000000000000000000, 1.000000000000000000 ) ) ;
#115 = PRODUCT ( '010525100d', '010525100d', '', ( #315 ) ) ;
#116 = PLANE ( 'NONE',  #303 ) ;
#117 = FACE_OUTER_BOUND ( 'NONE', #183, .T. ) ;
#118 = EDGE_LOOP ( 'NONE', ( #170, #181 ) ) ;
#119 = FACE_BOUND ( 'NONE', #236, .T. ) ;
#120 = DIRECTION ( 'NONE',  ( -1.000000000000000000, 0.0000000000000000000, 0.0000000000000000000 ) ) ;
#121 = ORIENTED_EDGE ( 'NONE', *, *, #70, .F. ) ;
#122 = CARTESIAN_POINT ( 'NONE',  ( 0.0000000000000000000, 0.0000000000000000000, 5.682999999999999800 ) ) ;
#123 = LINE ( 'NONE', #316, #100 ) ;
#124 = DIRECTION ( 'NONE',  ( -0.0000000000000000000, -0.0000000000000000000, -1.000000000000000000 ) ) ;
#125 = DIRECTION ( 'NONE',  ( 0.7071067811865425800, 0.0000000000000000000, 0.7071067811865525700 ) ) ;
#126 = CARTESIAN_POINT ( 'NONE',  ( 1.505000000000006300, 0.0000000000000000000, -8.500000000000000000 ) ) ;
#127 = ORIENTED_EDGE ( 'NONE', *, *, #350, .F. ) ;
#128 = STYLED_ITEM ( 'NONE', ( #178 ), #286 ) ;
#129 =( LENGTH_UNIT ( ) NAMED_UNIT ( * ) SI_UNIT ( .MILLI., .METRE. ) );
#130 = ORIENTED_EDGE ( 'NONE', *, *, #239, .T. ) ;
#131 = ORIENTED_EDGE ( 'NONE', *, *, #152, .F. ) ;
#132 = CIRCLE ( 'NONE', #193, 41.00000000000000000 ) ;
#133 = PRODUCT_RELATED_PRODUCT_CATEGORY ( 'part', '', ( #115 ) ) ;
#134 = ORIENTED_EDGE ( 'NONE', *, *, #337, .F. ) ;
#135 = DIRECTION ( 'NONE',  ( -1.000000000000000000, 0.0000000000000000000, 0.0000000000000000000 ) ) ;
#136 = STYLED_ITEM ( 'NONE', ( #164 ), #245 ) ;
#137 = CIRCLE ( 'NONE', #200, 41.00000000000000000 ) ;
#138 = CARTESIAN_POINT ( 'NONE',  ( -40.77750000000001100, 0.0000000000000000000, 5.682999999999999800 ) ) ;
#139 = ORIENTED_EDGE ( 'NONE', *, *, #25, .F. ) ;
#140 = ORIENTED_EDGE ( 'NONE', *, *, #101, .T. ) ;
#141 = CARTESIAN_POINT ( 'NONE',  ( 0.0000000000000000000, 0.0000000000000000000, 5.682999999999999800 ) ) ;
#142 = AXIS2_PLACEMENT_3D ( 'NONE', #21, #203, #135 ) ;
#143 = CARTESIAN_POINT ( 'NONE',  ( 0.0000000000000000000, 0.0000000000000000000, 8.474999999999999600 ) ) ;
#144 = DIRECTION ( 'NONE',  ( -1.000000000000000000, 0.0000000000000000000, 0.0000000000000000000 ) ) ;
#145 = ORIENTED_EDGE ( 'NONE', *, *, #305, .T. ) ;
#146 = ORIENTED_EDGE ( 'NONE', *, *, #326, .T. ) ;
#147 = DIRECTION ( 'NONE',  ( 0.0000000000000000000, 0.0000000000000000000, 1.000000000000000000 ) ) ;
#148 =( NAMED_UNIT ( * ) PLANE_ANGLE_UNIT ( ) SI_UNIT ( $, .RADIAN. ) );
#149 = CARTESIAN_POINT ( 'NONE',  ( -2.000000000000000000, 2.449293598294706400E-016, -8.500000000000000000 ) ) ;
#150 = DIRECTION ( 'NONE',  ( 0.0000000000000000000, 0.0000000000000000000, 1.000000000000000000 ) ) ;
#151 = ORIENTED_EDGE ( 'NONE', *, *, #337, .T. ) ;
#152 = EDGE_CURVE ( 'NONE', #226, #53, #36, .T. ) ;
#153 = ORIENTED_EDGE ( 'NONE', *, *, #57, .F. ) ;
#154 = DIRECTION ( 'NONE',  ( 0.0000000000000000000, 0.0000000000000000000, -1.000000000000000000 ) ) ;
#155 = EDGE_LOOP ( 'NONE', ( #275, #158 ) ) ;
#156 = CARTESIAN_POINT ( 'NONE',  ( 0.0000000000000000000, 0.0000000000000000000, 5.682999999999999800 ) ) ;
#157 = CARTESIAN_POINT ( 'NONE',  ( 41.00000000000000000, 5.021051876504149000E-015, 0.0000000000000000000 ) ) ;
#158 = ORIENTED_EDGE ( 'NONE', *, *, #253, .T. ) ;
#159 = ADVANCED_FACE ( 'NONE', ( #31 ), #309, .T. ) ;
#160 = ORIENTED_EDGE ( 'NONE', *, *, #25, .T. ) ;
#161 = APPLICATION_CONTEXT ( 'automotive_design' ) ;
#162 = CIRCLE ( 'NONE', #142, 2.000000000000000000 ) ;
#163 = CARTESIAN_POINT ( 'NONE',  ( 0.0000000000000000000, 0.0000000000000000000, 0.0000000000000000000 ) ) ;
#164 = PRESENTATION_STYLE_ASSIGNMENT (( #217 ) ) ;
#165 = DIRECTION ( 'NONE',  ( -0.0000000000000000000, -0.0000000000000000000, -1.000000000000000000 ) ) ;
#166 = ORIENTED_EDGE ( 'NONE', *, *, #101, .F. ) ;
#167 = EDGE_CURVE ( 'NONE', #257, #59, #42, .T. ) ;
#168 = DIRECTION ( 'NONE',  ( -0.0000000000000000000, -0.0000000000000000000, 1.000000000000000000 ) ) ;
#169 = ORIENTED_EDGE ( 'NONE', *, *, #350, .T. ) ;
#170 = ORIENTED_EDGE ( 'NONE', *, *, #167, .F. ) ;
#171 = CARTESIAN_POINT ( 'NONE',  ( -2.000000000000000000, 2.449293598294706400E-016, -8.005000000000000800 ) ) ;
#172 = SURFACE_SIDE_STYLE ('',( #43 ) ) ;
#173 =( GEOMETRIC_REPRESENTATION_CONTEXT ( 3 ) GLOBAL_UNCERTAINTY_ASSIGNED_CONTEXT ( ( #26 ) ) GLOBAL_UNIT_ASSIGNED_CONTEXT ( ( #50, #20, #34 ) ) REPRESENTATION_CONTEXT ( 'NONE', 'WORKASPACE' ) );
#174 = CARTESIAN_POINT ( 'NONE',  ( 0.0000000000000000000, 0.0000000000000000000, -8.500000000000000000 ) ) ;
#175 = ORIENTED_EDGE ( 'NONE', *, *, #65, .T. ) ;
#176 = ORIENTED_EDGE ( 'NONE', *, *, #284, .F. ) ;
#177 = ORIENTED_EDGE ( 'NONE', *, *, #65, .F. ) ;
#178 = PRESENTATION_STYLE_ASSIGNMENT (( #23 ) ) ;
#179 = LINE ( 'NONE', #84, #206 ) ;
#180 = CONICAL_SURFACE ( 'NONE', #105, 1.505000000000006300, 0.7853981633974412800 ) ;
#181 = ORIENTED_EDGE ( 'NONE', *, *, #326, .F. ) ;
#182 = ORIENTED_EDGE ( 'NONE', *, *, #271, .F. ) ;
#183 = EDGE_LOOP ( 'NONE', ( #201, #134, #349, #270 ) ) ;
#184 = DIRECTION ( 'NONE',  ( -0.0000000000000000000, -0.0000000000000000000, 1.000000000000000000 ) ) ;
#185 =( NAMED_UNIT ( * ) SI_UNIT ( $, .STERADIAN. ) SOLID_ANGLE_UNIT ( ) );
#186 = APPLICATION_PROTOCOL_DEFINITION ( 'draft international standard', 'automotive_design', 1998, #41 ) ;
#187 =( LENGTH_UNIT ( ) NAMED_UNIT ( * ) SI_UNIT ( .MILLI., .METRE. ) );
#188 = VECTOR ( 'NONE', #124, 1000.000000000000000 ) ;
#189 = CIRCLE ( 'NONE', #345, 41.00000000000000000 ) ;
#190 = CARTESIAN_POINT ( 'NONE',  ( -41.00000000000000000, 0.0000000000000000000, 5.682999999999999800 ) ) ;
#191 = CARTESIAN_POINT ( 'NONE',  ( 0.0000000000000000000, 0.0000000000000000000, 0.0000000000000000000 ) ) ;
#192 = DIRECTION ( 'NONE',  ( 1.000000000000000000, 0.0000000000000000000, -0.0000000000000000000 ) ) ;
#193 = AXIS2_PLACEMENT_3D ( 'NONE', #55, #147, #290 ) ;
#194 = CYLINDRICAL_SURFACE ( 'NONE', #261, 40.77750000000001100 ) ;
#195 = DIRECTION ( 'NONE',  ( 0.0000000000000000000, 0.0000000000000000000, 1.000000000000000000 ) ) ;
#196 = EDGE_LOOP ( 'NONE', ( #177, #252, #107, #260 ) ) ;
#197 = DIRECTION ( 'NONE',  ( -0.7071067811865425800, 8.659560562354872500E-017, 0.7071067811865525700 ) ) ;
#198 =( NAMED_UNIT ( * ) SI_UNIT ( $, .STERADIAN. ) SOLID_ANGLE_UNIT ( ) );
#199 = MECHANICAL_DESIGN_GEOMETRIC_PRESENTATION_REPRESENTATION (  '', ( #136 ), #106 ) ;
#200 = AXIS2_PLACEMENT_3D ( 'NONE', #141, #150, #45 ) ;
#201 = ORIENTED_EDGE ( 'NONE', *, *, #277, .F. ) ;
#202 = ORIENTED_EDGE ( 'NONE', *, *, #305, .F. ) ;
#203 = DIRECTION ( 'NONE',  ( 0.0000000000000000000, 0.0000000000000000000, 1.000000000000000000 ) ) ;
#204 = AXIS2_PLACEMENT_3D ( 'NONE', #122, #16, #94 ) ;
#205 = DIRECTION ( 'NONE',  ( 1.000000000000000000, 0.0000000000000000000, -0.0000000000000000000 ) ) ;
#206 = VECTOR ( 'NONE', #269, 1000.000000000000000 ) ;
#207 = PRODUCT_DEFINITION_FORMATION_WITH_SPECIFIED_SOURCE ( 'ANY', '', #115, .NOT_KNOWN. ) ;
#208 = ORIENTED_EDGE ( 'NONE', *, *, #71, .F. ) ;
#209 = AXIS2_PLACEMENT_3D ( 'NONE', #64, #311, #294 ) ;
#210 = DIRECTION ( 'NONE',  ( -1.000000000000000000, 0.0000000000000000000, 0.0000000000000000000 ) ) ;
#211 = EDGE_CURVE ( 'NONE', #285, #249, #289, .T. ) ;
#212 = DIRECTION ( 'NONE',  ( -0.0000000000000000000, -0.0000000000000000000, -1.000000000000000000 ) ) ;
#213 = EDGE_LOOP ( 'NONE', ( #35, #58 ) ) ;
#214 = AXIS2_PLACEMENT_3D ( 'NONE', #241, #72, #266 ) ;
#215 = SURFACE_STYLE_FILL_AREA ( #295 ) ;
#216 = LINE ( 'NONE', #149, #306 ) ;
#217 = SURFACE_STYLE_USAGE ( .BOTH. , #172 ) ;
#218 = DIRECTION ( 'NONE',  ( 0.0000000000000000000, 0.0000000000000000000, 1.000000000000000000 ) ) ;
#219 = FACE_OUTER_BOUND ( 'NONE', #229, .T. ) ;
#220 = AXIS2_PLACEMENT_3D ( 'NONE', #68, #262, #92 ) ;
#221 = DIRECTION ( 'NONE',  ( 0.0000000000000000000, 0.0000000000000000000, 1.000000000000000000 ) ) ;
#222 = CARTESIAN_POINT ( 'NONE',  ( 0.0000000000000000000, 0.0000000000000000000, -8.500000000000000000 ) ) ;
#223 = CARTESIAN_POINT ( 'NONE',  ( -2.000000000000000000, 2.449293598294706400E-016, 0.0000000000000000000 ) ) ;
#224 = ORIENTED_EDGE ( 'NONE', *, *, #271, .T. ) ;
#225 = EDGE_LOOP ( 'NONE', ( #151, #175 ) ) ;
#226 = VERTEX_POINT ( 'NONE', #104 ) ;
#227 = CARTESIAN_POINT ( 'NONE',  ( 0.0000000000000000000, 0.0000000000000000000, 5.682999999999999800 ) ) ;
#228 = CARTESIAN_POINT ( 'NONE',  ( 0.0000000000000000000, 0.0000000000000000000, -8.500000000000000000 ) ) ;
#229 = EDGE_LOOP ( 'NONE', ( #331, #28, #202, #66 ) ) ;
#230 = PRESENTATION_LAYER_ASSIGNMENT (  '', '', ( #136 ) ) ;
#231 = FACE_OUTER_BOUND ( 'NONE', #342, .T. ) ;
#232 = ADVANCED_FACE ( 'NONE', ( #93, #13 ), #111, .F. ) ;
#233 = AXIS2_PLACEMENT_3D ( 'NONE', #288, #218, #205 ) ;
#234 = EDGE_LOOP ( 'NONE', ( #321, #153, #224, #340 ) ) ;
#235 = DIRECTION ( 'NONE',  ( -0.0000000000000000000, -0.0000000000000000000, -1.000000000000000000 ) ) ;
#236 = EDGE_LOOP ( 'NONE', ( #121, #176 ) ) ;
#237 = VERTEX_POINT ( 'NONE', #138 ) ;
#238 = DIRECTION ( 'NONE',  ( 1.000000000000000000, 0.0000000000000000000, 0.0000000000000000000 ) ) ;
#239 = EDGE_CURVE ( 'NONE', #226, #265, #274, .T. ) ;
#240 = AXIS2_PLACEMENT_3D ( 'NONE', #47, #44, #96 ) ;
#241 = CARTESIAN_POINT ( 'NONE',  ( 0.0000000000000000000, 0.0000000000000000000, 8.474999999999999600 ) ) ;
#242 = AXIS2_PLACEMENT_3D ( 'NONE', #228, #51, #74 ) ;
#243 = LINE ( 'NONE', #112, #247 ) ;
#244 = ADVANCED_FACE ( 'NONE', ( #32 ), #24, .T. ) ;
#245 = MANIFOLD_SOLID_BREP ( 'Aufsatz-Linear austragen3', #333 ) ;
#246 = AXIS2_PLACEMENT_3D ( 'NONE', #259, #90, #238 ) ;
#247 = VECTOR ( 'NONE', #235, 1000.000000000000000 ) ;
#248 = COLOUR_RGB ( '',0.7921568627450980000, 0.8196078431372548800, 0.9333333333333333500 ) ;
#249 = VERTEX_POINT ( 'NONE', #157 ) ;
#250 = FACE_OUTER_BOUND ( 'NONE', #234, .T. ) ;
#251 = ADVANCED_FACE ( 'NONE', ( #231 ), #103, .T. ) ;
#252 = ORIENTED_EDGE ( 'NONE', *, *, #277, .T. ) ;
#253 = EDGE_CURVE ( 'NONE', #53, #226, #278, .T. ) ;
#254 = AXIS2_PLACEMENT_3D ( 'NONE', #73, #19, #267 ) ;
#255 = LINE ( 'NONE', #30, #82 ) ;
#256 = AXIS2_PLACEMENT_3D ( 'NONE', #301, #221, #263 ) ;
#257 = VERTEX_POINT ( 'NONE', #27 ) ;
#258 = DIRECTION ( 'NONE',  ( -1.000000000000000000, 0.0000000000000000000, -0.0000000000000000000 ) ) ;
#259 = CARTESIAN_POINT ( 'NONE',  ( 0.0000000000000000000, 0.0000000000000000000, -8.500000000000000000 ) ) ;
#260 = ORIENTED_EDGE ( 'NONE', *, *, #296, .F. ) ;
#261 = AXIS2_PLACEMENT_3D ( 'NONE', #37, #8, #39 ) ;
#262 = DIRECTION ( 'NONE',  ( 0.0000000000000000000, 0.0000000000000000000, 1.000000000000000000 ) ) ;
#263 = DIRECTION ( 'NONE',  ( -1.000000000000000000, 0.0000000000000000000, 0.0000000000000000000 ) ) ;
#264 = CARTESIAN_POINT ( 'NONE',  ( 0.0000000000000000000, 0.0000000000000000000, -8.500000000000000000 ) ) ;
#265 = VERTEX_POINT ( 'NONE', #334 ) ;
#266 = DIRECTION ( 'NONE',  ( 1.000000000000000000, 0.0000000000000000000, 0.0000000000000000000 ) ) ;
#267 = DIRECTION ( 'NONE',  ( 1.000000000000000000, 0.0000000000000000000, 0.0000000000000000000 ) ) ;
#268 = ADVANCED_FACE ( 'NONE', ( #219 ), #180, .T. ) ;
#269 = DIRECTION ( 'NONE',  ( -0.0000000000000000000, -0.0000000000000000000, -1.000000000000000000 ) ) ;
#270 = ORIENTED_EDGE ( 'NONE', *, *, #70, .T. ) ;
#271 = EDGE_CURVE ( 'NONE', #4, #110, #243, .T. ) ;
#272 = AXIS2_PLACEMENT_3D ( 'NONE', #98, #298, #322 ) ;
#273 = ORIENTED_EDGE ( 'NONE', *, *, #211, .T. ) ;
#274 = LINE ( 'NONE', #126, #15 ) ;
#275 = ORIENTED_EDGE ( 'NONE', *, *, #152, .T. ) ;
#276 = UNCERTAINTY_MEASURE_WITH_UNIT (LENGTH_MEASURE( 1.000000000000000100E-005 ), #187, 'distance_accuracy_value', 'NONE');
#277 = EDGE_CURVE ( 'NONE', #78, #346, #255, .T. ) ;
#278 = CIRCLE ( 'NONE', #314, 1.505000000000006300 ) ;
#279 = ORIENTED_EDGE ( 'NONE', *, *, #338, .F. ) ;
#280 = EDGE_LOOP ( 'NONE', ( #208, #131, #130, #139 ) ) ;
#281 = AXIS2_PLACEMENT_3D ( 'NONE', #5, #86, #11 ) ;
#282 = APPLICATION_PROTOCOL_DEFINITION ( 'draft international standard', 'automotive_design', 1998, #161 ) ;
#283 = VERTEX_POINT ( 'NONE', #171 ) ;
#284 = EDGE_CURVE ( 'NONE', #346, #237, #29, .T. ) ;
#285 = VERTEX_POINT ( 'NONE', #60 ) ;
#286 = ADVANCED_BREP_SHAPE_REPRESENTATION ( '010525100d', ( #245, #22 ), #173 ) ;
#287 = DIRECTION ( 'NONE',  ( 1.000000000000000000, 0.0000000000000000000, 0.0000000000000000000 ) ) ;
#288 = CARTESIAN_POINT ( 'NONE',  ( 0.0000000000000000000, 0.0000000000000000000, 5.682999999999999800 ) ) ;
#289 = LINE ( 'NONE', #324, #188 ) ;
#290 = DIRECTION ( 'NONE',  ( 1.000000000000000000, 0.0000000000000000000, 0.0000000000000000000 ) ) ;
#291 = SURFACE_SIDE_STYLE ('',( #215 ) ) ;
#292 = CARTESIAN_POINT ( 'NONE',  ( 40.77750000000001100, 4.993803485223120800E-015, 5.682999999999999800 ) ) ;
#293 = FILL_AREA_STYLE_COLOUR ( '', #248 ) ;
#294 = DIRECTION ( 'NONE',  ( 1.000000000000000000, 0.0000000000000000000, 0.0000000000000000000 ) ) ;
#295 = FILL_AREA_STYLE ('',( #293 ) ) ;
#296 = EDGE_CURVE ( 'NONE', #308, #237, #179, .T. ) ;
#297 = CARTESIAN_POINT ( 'NONE',  ( -1.505000000000006300, 1.843093432716774200E-016, -8.500000000000000000 ) ) ;
#298 = DIRECTION ( 'NONE',  ( 0.0000000000000000000, 0.0000000000000000000, 1.000000000000000000 ) ) ;
#299 =( NAMED_UNIT ( * ) PLANE_ANGLE_UNIT ( ) SI_UNIT ( $, .RADIAN. ) );
#300 = ORIENTED_EDGE ( 'NONE', *, *, #348, .F. ) ;
#301 = CARTESIAN_POINT ( 'NONE',  ( 0.0000000000000000000, 0.0000000000000000000, -8.005000000000000800 ) ) ;
#302 = FACE_OUTER_BOUND ( 'NONE', #213, .T. ) ;
#303 = AXIS2_PLACEMENT_3D ( 'NONE', #174, #87, #258 ) ;
#304 = ORIENTED_EDGE ( 'NONE', *, *, #338, .T. ) ;
#305 = EDGE_CURVE ( 'NONE', #265, #283, #162, .T. ) ;
#306 = VECTOR ( 'NONE', #184, 1000.000000000000000 ) ;
#307 = EDGE_CURVE ( 'NONE', #110, #249, #132, .T. ) ;
#308 = VERTEX_POINT ( 'NONE', #335 ) ;
#309 = CYLINDRICAL_SURFACE ( 'NONE', #254, 2.000000000000000000 ) ;
#310 = ADVANCED_FACE ( 'NONE', ( #46 ), #116, .T. ) ;
#311 = DIRECTION ( 'NONE',  ( 0.0000000000000000000, 0.0000000000000000000, 1.000000000000000000 ) ) ;
#312 = CARTESIAN_POINT ( 'NONE',  ( 0.0000000000000000000, 0.0000000000000000000, 8.474999999999999600 ) ) ;
#313 = DIRECTION ( 'NONE',  ( 0.0000000000000000000, 0.0000000000000000000, 1.000000000000000000 ) ) ;
#314 = AXIS2_PLACEMENT_3D ( 'NONE', #222, #154, #120 ) ;
#315 = PRODUCT_CONTEXT ( 'NONE', #161, 'mechanical' ) ;
#316 = CARTESIAN_POINT ( 'NONE',  ( 2.000000000000000000, 0.0000000000000000000, -8.500000000000000000 ) ) ;
#317 = PLANE ( 'NONE',  #83 ) ;
#318 = AXIS2_PLACEMENT_3D ( 'NONE', #7, #168, #80 ) ;
#319 = CARTESIAN_POINT ( 'NONE',  ( -41.00000000000000000, 0.0000000000000000000, 0.0000000000000000000 ) ) ;
#320 = EDGE_LOOP ( 'NONE', ( #63, #166 ) ) ;
#321 = ORIENTED_EDGE ( 'NONE', *, *, #211, .F. ) ;
#322 = DIRECTION ( 'NONE',  ( 1.000000000000000000, 0.0000000000000000000, 0.0000000000000000000 ) ) ;
#323 = ORIENTED_EDGE ( 'NONE', *, *, #167, .T. ) ;
#324 = CARTESIAN_POINT ( 'NONE',  ( 41.00000000000000000, 5.021051876504149000E-015, 5.682999999999999800 ) ) ;
#325 = ADVANCED_FACE ( 'NONE', ( #12 ), #194, .T. ) ;
#326 = EDGE_CURVE ( 'NONE', #59, #257, #17, .T. ) ;
#327 = ADVANCED_FACE ( 'NONE', ( #119, #302 ), #6, .T. ) ;
#328 = PRODUCT_DEFINITION_CONTEXT ( 'detailed design', #41, 'design' ) ;
#329 = UNCERTAINTY_MEASURE_WITH_UNIT (LENGTH_MEASURE( 1.000000000000000100E-005 ), #129, 'distance_accuracy_value', 'NONE');
#330 = EDGE_LOOP ( 'NONE', ( #279, #160, #169, #323 ) ) ;
#331 = ORIENTED_EDGE ( 'NONE', *, *, #253, .F. ) ;
#332 = AXIS2_PLACEMENT_3D ( 'NONE', #102, #3, #85 ) ;
#333 = CLOSED_SHELL ( 'NONE', ( #325, #268, #159, #251, #75, #327, #232, #244, #310, #336, #38, #52 ) ) ;
#334 = CARTESIAN_POINT ( 'NONE',  ( 2.000000000000000000, 0.0000000000000000000, -8.005000000000000800 ) ) ;
#335 = CARTESIAN_POINT ( 'NONE',  ( -40.77750000000001100, 0.0000000000000000000, 8.474999999999999600 ) ) ;
#336 = ADVANCED_FACE ( 'NONE', ( #95 ), #347, .T. ) ;
#337 = EDGE_CURVE ( 'NONE', #308, #78, #40, .T. ) ;
#338 = EDGE_CURVE ( 'NONE', #283, #59, #216, .T. ) ;
#339 = DIRECTION ( 'NONE',  ( 0.0000000000000000000, 0.0000000000000000000, 1.000000000000000000 ) ) ;
#340 = ORIENTED_EDGE ( 'NONE', *, *, #307, .T. ) ;
#341 = DIRECTION ( 'NONE',  ( 1.000000000000000000, 0.0000000000000000000, 0.0000000000000000000 ) ) ;
#342 = EDGE_LOOP ( 'NONE', ( #300, #273, #140, #182 ) ) ;
#343 = EDGE_LOOP ( 'NONE', ( #145, #304, #146, #127 ) ) ;
#344 = CARTESIAN_POINT ( 'NONE',  ( 40.77750000000001100, 4.993803485223120800E-015, 8.474999999999999600 ) ) ;
#345 = AXIS2_PLACEMENT_3D ( 'NONE', #156, #195, #341 ) ;
#346 = VERTEX_POINT ( 'NONE', #292 ) ;
#347 = CONICAL_SURFACE ( 'NONE', #246, 1.505000000000006300, 0.7853981633974412800 ) ;
#348 = EDGE_CURVE ( 'NONE', #285, #4, #137, .T. ) ;
#349 = ORIENTED_EDGE ( 'NONE', *, *, #296, .T. ) ;
#350 = EDGE_CURVE ( 'NONE', #265, #257, #123, .T. ) ;
ENDSEC;
END-ISO-10303-21;
