ISO-10303-21;
HEADER;
FILE_DESCRIPTION (( 'STEP AP214' ),
    '1' );
FILE_NAME ('02234510d.STEP',
    '2019-08-22T13:35:32',
    ( '' ),
    ( '' ),
    'SwSTEP 2.0',
    'SolidWorks 2018',
    '' );
FILE_SCHEMA (( 'AUTOMOTIVE_DESIGN' ));
ENDSEC;

DATA;
#1 =( NAMED_UNIT ( * ) SI_UNIT ( $, .STERADIAN. ) SOLID_ANGLE_UNIT ( ) );
#2 = SURFACE_SIDE_STYLE ('',( #283 ) ) ;
#3 = AXIS2_PLACEMENT_3D ( 'NONE', #284, #224, #93 ) ;
#4 = ADVANCED_FACE ( 'NONE', ( #226 ), #23, .F. ) ;
#5 = DIRECTION ( 'NONE',  ( -0.0000000000000000000, -0.0000000000000000000, -1.000000000000000000 ) ) ;
#6 = EDGE_LOOP ( 'NONE', ( #38, #244, #170, #109 ) ) ;
#7 = AXIS2_PLACEMENT_3D ( 'NONE', #105, #80, #264 ) ;
#8 = DIRECTION ( 'NONE',  ( 1.000000000000000000, 0.0000000000000000000, 0.0000000000000000000 ) ) ;
#9 = DIRECTION ( 'NONE',  ( -1.000000000000000000, 0.0000000000000000000, 0.0000000000000000000 ) ) ;
#10 = FACE_OUTER_BOUND ( 'NONE', #285, .T. ) ;
#11 = CYLINDRICAL_SURFACE ( 'NONE', #191, 17.49999999999999645 ) ;
#12 = DIRECTION ( 'NONE',  ( -0.0000000000000000000, -0.0000000000000000000, -1.000000000000000000 ) ) ;
#13 = EDGE_CURVE ( 'NONE', #92, #223, #16, .T. ) ;
#14 = CARTESIAN_POINT ( 'NONE',  ( 0.0000000000000000000, 0.0000000000000000000, 6.000000000000000000 ) ) ;
#15 = CARTESIAN_POINT ( 'NONE',  ( 0.0000000000000000000, 0.0000000000000000000, 3.799999999999999822 ) ) ;
#16 = CIRCLE ( 'NONE', #295, 17.49999999999999645 ) ;
#17 = CYLINDRICAL_SURFACE ( 'NONE', #288, 17.49999999999999645 ) ;
#18 = PRODUCT ( '02234510d', '02234510d', '', ( #131 ) ) ;
#19 = AXIS2_PLACEMENT_3D ( 'NONE', #58, #212, #259 ) ;
#20 = ORIENTED_EDGE ( 'NONE', *, *, #166, .T. ) ;
#21 = AXIS2_PLACEMENT_3D ( 'NONE', #82, #206, #8 ) ;
#22 = CIRCLE ( 'NONE', #136, 16.00000000000000000 ) ;
#23 = PLANE ( 'NONE',  #44 ) ;
#24 = APPLICATION_CONTEXT ( 'automotive_design' ) ;
#25 =( NAMED_UNIT ( * ) SI_UNIT ( $, .STERADIAN. ) SOLID_ANGLE_UNIT ( ) );
#26 = EDGE_CURVE ( 'NONE', #89, #120, #50, .T. ) ;
#27 = ORIENTED_EDGE ( 'NONE', *, *, #217, .T. ) ;
#28 = LINE ( 'NONE', #56, #124 ) ;
#29 = DIRECTION ( 'NONE',  ( -0.0000000000000000000, -0.0000000000000000000, -1.000000000000000000 ) ) ;
#30 = SURFACE_STYLE_USAGE ( .BOTH. , #2 ) ;
#31 = ORIENTED_EDGE ( 'NONE', *, *, #41, .F. ) ;
#32 = SURFACE_SIDE_STYLE ('',( #133 ) ) ;
#33 = CARTESIAN_POINT ( 'NONE',  ( 16.00000000000000000, 1.959434878635765131E-15, 3.799999999999999822 ) ) ;
#34 = DIRECTION ( 'NONE',  ( -1.000000000000000000, 0.0000000000000000000, 0.0000000000000000000 ) ) ;
#35 = ORIENTED_EDGE ( 'NONE', *, *, #155, .F. ) ;
#36 = CARTESIAN_POINT ( 'NONE',  ( 0.0000000000000000000, 0.0000000000000000000, 3.000000000000000000 ) ) ;
#37 = ORIENTED_EDGE ( 'NONE', *, *, #202, .T. ) ;
#38 = ORIENTED_EDGE ( 'NONE', *, *, #195, .F. ) ;
#39 = PRESENTATION_STYLE_ASSIGNMENT (( #117 ) ) ;
#40 = PRESENTATION_LAYER_ASSIGNMENT (  '', '', ( #215 ) ) ;
#41 = EDGE_CURVE ( 'NONE', #43, #278, #101, .T. ) ;
#42 = VERTEX_POINT ( 'NONE', #69 ) ;
#43 = VERTEX_POINT ( 'NONE', #90 ) ;
#44 = AXIS2_PLACEMENT_3D ( 'NONE', #296, #300, #150 ) ;
#45 = EDGE_CURVE ( 'NONE', #120, #89, #162, .T. ) ;
#46 = VERTEX_POINT ( 'NONE', #245 ) ;
#47 = DIRECTION ( 'NONE',  ( 0.0000000000000000000, 0.0000000000000000000, 1.000000000000000000 ) ) ;
#48 =( LENGTH_UNIT ( ) NAMED_UNIT ( * ) SI_UNIT ( .MILLI., .METRE. ) );
#49 = AXIS2_PLACEMENT_3D ( 'NONE', #174, #73, #135 ) ;
#50 = CIRCLE ( 'NONE', #228, 16.10000000000000142 ) ;
#51 = ADVANCED_FACE ( 'NONE', ( #172 ), #154, .T. ) ;
#52 = EDGE_LOOP ( 'NONE', ( #27, #169 ) ) ;
#53 = MECHANICAL_DESIGN_GEOMETRIC_PRESENTATION_REPRESENTATION (  '', ( #215 ), #70 ) ;
#54 = CARTESIAN_POINT ( 'NONE',  ( 0.0000000000000000000, 0.0000000000000000000, 3.799999999999999822 ) ) ;
#55 = FILL_AREA_STYLE_COLOUR ( '', #236 ) ;
#56 = CARTESIAN_POINT ( 'NONE',  ( 17.49999999999999645, 2.143131898507867854E-15, 3.000000000000000000 ) ) ;
#57 = PRODUCT_DEFINITION_FORMATION_WITH_SPECIFIED_SOURCE ( 'ANY', '', #18, .NOT_KNOWN. ) ;
#58 = CARTESIAN_POINT ( 'NONE',  ( 0.0000000000000000000, 0.0000000000000000000, 3.000000000000000000 ) ) ;
#59 = ORIENTED_EDGE ( 'NONE', *, *, #63, .F. ) ;
#60 = CARTESIAN_POINT ( 'NONE',  ( -16.00000000000000000, 0.0000000000000000000, 6.000000000000000000 ) ) ;
#61 = LINE ( 'NONE', #75, #194 ) ;
#62 = SHAPE_DEFINITION_REPRESENTATION ( #173, #280 ) ;
#63 = EDGE_CURVE ( 'NONE', #271, #230, #61, .T. ) ;
#64 = FACE_OUTER_BOUND ( 'NONE', #167, .T. ) ;
#65 = FACE_OUTER_BOUND ( 'NONE', #6, .T. ) ;
#66 = AXIS2_PLACEMENT_3D ( 'NONE', #187, #83, #261 ) ;
#67 = CLOSED_SHELL ( 'NONE', ( #96, #51, #137, #277, #254, #4, #99, #176, #118, #201 ) ) ;
#68 = LINE ( 'NONE', #179, #231 ) ;
#69 = CARTESIAN_POINT ( 'NONE',  ( 17.49999999999999645, 2.143131898507867854E-15, 3.000000000000000000 ) ) ;
#70 =( GEOMETRIC_REPRESENTATION_CONTEXT ( 3 ) GLOBAL_UNCERTAINTY_ASSIGNED_CONTEXT ( ( #238 ) ) GLOBAL_UNIT_ASSIGNED_CONTEXT ( ( #208, #79, #1 ) ) REPRESENTATION_CONTEXT ( 'NONE', 'WORKASPACE' ) );
#71 = DIRECTION ( 'NONE',  ( 1.000000000000000000, 0.0000000000000000000, 0.0000000000000000000 ) ) ;
#72 = CYLINDRICAL_SURFACE ( 'NONE', #66, 16.10000000000000142 ) ;
#73 = DIRECTION ( 'NONE',  ( -0.0000000000000000000, -0.0000000000000000000, -1.000000000000000000 ) ) ;
#74 = ORIENTED_EDGE ( 'NONE', *, *, #63, .T. ) ;
#75 = CARTESIAN_POINT ( 'NONE',  ( 16.00000000000000000, 1.959434878635765131E-15, 6.000000000000000000 ) ) ;
#76 = ORIENTED_EDGE ( 'NONE', *, *, #229, .F. ) ;
#77 = PLANE ( 'NONE',  #164 ) ;
#78 = DIRECTION ( 'NONE',  ( -0.0000000000000000000, -0.0000000000000000000, -1.000000000000000000 ) ) ;
#79 =( NAMED_UNIT ( * ) PLANE_ANGLE_UNIT ( ) SI_UNIT ( $, .RADIAN. ) );
#80 = DIRECTION ( 'NONE',  ( 0.0000000000000000000, 0.0000000000000000000, 1.000000000000000000 ) ) ;
#81 = FACE_BOUND ( 'NONE', #255, .T. ) ;
#82 = CARTESIAN_POINT ( 'NONE',  ( 0.0000000000000000000, 0.0000000000000000000, 3.000000000000000000 ) ) ;
#83 = DIRECTION ( 'NONE',  ( -0.0000000000000000000, -0.0000000000000000000, -1.000000000000000000 ) ) ;
#84 = AXIS2_PLACEMENT_3D ( 'NONE', #139, #233, #159 ) ;
#85 = FILL_AREA_STYLE_COLOUR ( '', #113 ) ;
#86 = ORIENTED_EDGE ( 'NONE', *, *, #108, .T. ) ;
#87 = CYLINDRICAL_SURFACE ( 'NONE', #269, 16.00000000000000000 ) ;
#88 = PRODUCT_DEFINITION_CONTEXT ( 'detailed design', #24, 'design' ) ;
#89 = VERTEX_POINT ( 'NONE', #275 ) ;
#90 = CARTESIAN_POINT ( 'NONE',  ( 16.10000000000000142, 1.971681346627238883E-15, 3.799999999999999822 ) ) ;
#91 = CARTESIAN_POINT ( 'NONE',  ( 0.0000000000000000000, 0.0000000000000000000, 3.000000000000000000 ) ) ;
#92 = VERTEX_POINT ( 'NONE', #115 ) ;
#93 = DIRECTION ( 'NONE',  ( 1.000000000000000000, 0.0000000000000000000, 0.0000000000000000000 ) ) ;
#94 = CARTESIAN_POINT ( 'NONE',  ( 0.0000000000000000000, 0.0000000000000000000, 6.000000000000000000 ) ) ;
#95 = APPLICATION_CONTEXT ( 'automotive_design' ) ;
#96 = ADVANCED_FACE ( 'NONE', ( #220 ), #129, .T. ) ;
#97 =( GEOMETRIC_REPRESENTATION_CONTEXT ( 3 ) GLOBAL_UNCERTAINTY_ASSIGNED_CONTEXT ( ( #221 ) ) GLOBAL_UNIT_ASSIGNED_CONTEXT ( ( #48, #253, #25 ) ) REPRESENTATION_CONTEXT ( 'NONE', 'WORKASPACE' ) );
#98 = ORIENTED_EDGE ( 'NONE', *, *, #108, .F. ) ;
#99 = ADVANCED_FACE ( 'NONE', ( #297 ), #72, .T. ) ;
#100 = CARTESIAN_POINT ( 'NONE',  ( 0.0000000000000000000, 0.0000000000000000000, 6.000000000000000000 ) ) ;
#101 = CIRCLE ( 'NONE', #193, 16.10000000000000142 ) ;
#102 = DIRECTION ( 'NONE',  ( -1.000000000000000000, 0.0000000000000000000, 0.0000000000000000000 ) ) ;
#103 = FACE_OUTER_BOUND ( 'NONE', #190, .T. ) ;
#104 = DIRECTION ( 'NONE',  ( 0.0000000000000000000, 0.0000000000000000000, 1.000000000000000000 ) ) ;
#105 = CARTESIAN_POINT ( 'NONE',  ( 0.0000000000000000000, 0.0000000000000000000, 6.000000000000000000 ) ) ;
#106 = ORIENTED_EDGE ( 'NONE', *, *, #246, .T. ) ;
#107 = ORIENTED_EDGE ( 'NONE', *, *, #195, .T. ) ;
#108 = EDGE_CURVE ( 'NONE', #46, #230, #22, .T. ) ;
#109 = ORIENTED_EDGE ( 'NONE', *, *, #229, .T. ) ;
#110 =( GEOMETRIC_REPRESENTATION_CONTEXT ( 3 ) GLOBAL_UNCERTAINTY_ASSIGNED_CONTEXT ( ( #199 ) ) GLOBAL_UNIT_ASSIGNED_CONTEXT ( ( #175, #181, #200 ) ) REPRESENTATION_CONTEXT ( 'NONE', 'WORKASPACE' ) );
#111 = DIRECTION ( 'NONE',  ( 1.000000000000000000, 0.0000000000000000000, 0.0000000000000000000 ) ) ;
#112 = ORIENTED_EDGE ( 'NONE', *, *, #149, .F. ) ;
#113 = COLOUR_RGB ( '',0.7921568627450980005, 0.8196078431372548767, 0.9333333333333333481 ) ;
#114 = ORIENTED_EDGE ( 'NONE', *, *, #290, .F. ) ;
#115 = CARTESIAN_POINT ( 'NONE',  ( 17.49999999999999645, 2.143131898507867854E-15, 0.0000000000000000000 ) ) ;
#116 = APPLICATION_PROTOCOL_DEFINITION ( 'draft international standard', 'automotive_design', 1998, #95 ) ;
#117 = SURFACE_STYLE_USAGE ( .BOTH. , #32 ) ;
#118 = ADVANCED_FACE ( 'NONE', ( #192 ), #87, .T. ) ;
#119 = MECHANICAL_DESIGN_GEOMETRIC_PRESENTATION_REPRESENTATION (  '', ( #251 ), #97 ) ;
#120 = VERTEX_POINT ( 'NONE', #289 ) ;
#121 = CARTESIAN_POINT ( 'NONE',  ( -17.49999999999999645, 0.0000000000000000000, 0.0000000000000000000 ) ) ;
#122 = CARTESIAN_POINT ( 'NONE',  ( 0.0000000000000000000, 0.0000000000000000000, 3.000000000000000000 ) ) ;
#123 = VECTOR ( 'NONE', #158, 1000.000000000000000 ) ;
#124 = VECTOR ( 'NONE', #78, 1000.000000000000000 ) ;
#125 = CARTESIAN_POINT ( 'NONE',  ( -17.49999999999999645, 0.0000000000000000000, 3.000000000000000000 ) ) ;
#126 = PRODUCT_RELATED_PRODUCT_CATEGORY ( 'part', '', ( #18 ) ) ;
#127 = EDGE_CURVE ( 'NONE', #291, #46, #132, .T. ) ;
#128 = ORIENTED_EDGE ( 'NONE', *, *, #188, .F. ) ;
#129 = CYLINDRICAL_SURFACE ( 'NONE', #171, 16.00000000000000000 ) ;
#130 = ORIENTED_EDGE ( 'NONE', *, *, #26, .T. ) ;
#131 = PRODUCT_CONTEXT ( 'NONE', #95, 'mechanical' ) ;
#132 = LINE ( 'NONE', #260, #123 ) ;
#133 = SURFACE_STYLE_FILL_AREA ( #239 ) ;
#134 = DIRECTION ( 'NONE',  ( 1.000000000000000000, 0.0000000000000000000, 0.0000000000000000000 ) ) ;
#135 = DIRECTION ( 'NONE',  ( -1.000000000000000000, 0.0000000000000000000, 0.0000000000000000000 ) ) ;
#136 = AXIS2_PLACEMENT_3D ( 'NONE', #156, #161, #111 ) ;
#137 = ADVANCED_FACE ( 'NONE', ( #64 ), #17, .T. ) ;
#138 = ORIENTED_EDGE ( 'NONE', *, *, #127, .F. ) ;
#139 = CARTESIAN_POINT ( 'NONE',  ( 0.0000000000000000000, 0.0000000000000000000, 3.799999999999999822 ) ) ;
#140 = FILL_AREA_STYLE ('',( #55 ) ) ;
#141 = PLANE ( 'NONE',  #146 ) ;
#142 = CIRCLE ( 'NONE', #21, 17.49999999999999645 ) ;
#143 = DIRECTION ( 'NONE',  ( -0.0000000000000000000, -0.0000000000000000000, -1.000000000000000000 ) ) ;
#144 = ORIENTED_EDGE ( 'NONE', *, *, #127, .T. ) ;
#145 = CIRCLE ( 'NONE', #185, 16.00000000000000000 ) ;
#146 = AXIS2_PLACEMENT_3D ( 'NONE', #54, #104, #237 ) ;
#147 = VERTEX_POINT ( 'NONE', #125 ) ;
#148 = EDGE_LOOP ( 'NONE', ( #292, #282 ) ) ;
#149 = EDGE_CURVE ( 'NONE', #147, #223, #242, .T. ) ;
#150 = DIRECTION ( 'NONE',  ( 1.000000000000000000, 0.0000000000000000000, -0.0000000000000000000 ) ) ;
#151 = ORIENTED_EDGE ( 'NONE', *, *, #13, .T. ) ;
#152 = CIRCLE ( 'NONE', #19, 17.49999999999999645 ) ;
#153 = CARTESIAN_POINT ( 'NONE',  ( 0.0000000000000000000, 0.0000000000000000000, 3.000000000000000000 ) ) ;
#154 = CYLINDRICAL_SURFACE ( 'NONE', #49, 16.10000000000000142 ) ;
#155 = EDGE_CURVE ( 'NONE', #291, #271, #249, .T. ) ;
#156 = CARTESIAN_POINT ( 'NONE',  ( 0.0000000000000000000, 0.0000000000000000000, 3.799999999999999822 ) ) ;
#157 = EDGE_LOOP ( 'NONE', ( #59, #35, #144, #86 ) ) ;
#158 = DIRECTION ( 'NONE',  ( -0.0000000000000000000, -0.0000000000000000000, -1.000000000000000000 ) ) ;
#159 = DIRECTION ( 'NONE',  ( 1.000000000000000000, 0.0000000000000000000, 0.0000000000000000000 ) ) ;
#160 = DIRECTION ( 'NONE',  ( -0.0000000000000000000, -0.0000000000000000000, -1.000000000000000000 ) ) ;
#161 = DIRECTION ( 'NONE',  ( 0.0000000000000000000, 0.0000000000000000000, 1.000000000000000000 ) ) ;
#162 = CIRCLE ( 'NONE', #235, 16.10000000000000142 ) ;
#163 = DIRECTION ( 'NONE',  ( 0.0000000000000000000, 0.0000000000000000000, 1.000000000000000000 ) ) ;
#164 = AXIS2_PLACEMENT_3D ( 'NONE', #100, #209, #286 ) ;
#165 = DIRECTION ( 'NONE',  ( 0.0000000000000000000, 0.0000000000000000000, 1.000000000000000000 ) ) ;
#166 = EDGE_CURVE ( 'NONE', #147, #42, #142, .T. ) ;
#167 = EDGE_LOOP ( 'NONE', ( #198, #107, #151, #112 ) ) ;
#168 = LINE ( 'NONE', #234, #219 ) ;
#169 = ORIENTED_EDGE ( 'NONE', *, *, #41, .T. ) ;
#170 = ORIENTED_EDGE ( 'NONE', *, *, #149, .T. ) ;
#171 = AXIS2_PLACEMENT_3D ( 'NONE', #94, #276, #225 ) ;
#172 = FACE_OUTER_BOUND ( 'NONE', #270, .T. ) ;
#173 = PRODUCT_DEFINITION_SHAPE ( 'NONE', 'NONE',  #272 ) ;
#174 = CARTESIAN_POINT ( 'NONE',  ( 0.0000000000000000000, 0.0000000000000000000, 3.799999999999999822 ) ) ;
#175 =( LENGTH_UNIT ( ) NAMED_UNIT ( * ) SI_UNIT ( .MILLI., .METRE. ) );
#176 = ADVANCED_FACE ( 'NONE', ( #81, #183 ), #141, .T. ) ;
#177 = AXIS2_PLACEMENT_3D ( 'NONE', #36, #163, #240 ) ;
#178 = ORIENTED_EDGE ( 'NONE', *, *, #188, .T. ) ;
#179 = CARTESIAN_POINT ( 'NONE',  ( 16.10000000000000142, 1.971681346627238883E-15, 3.799999999999999822 ) ) ;
#180 = CARTESIAN_POINT ( 'NONE',  ( 0.0000000000000000000, 0.0000000000000000000, 3.000000000000000000 ) ) ;
#181 =( NAMED_UNIT ( * ) PLANE_ANGLE_UNIT ( ) SI_UNIT ( $, .RADIAN. ) );
#182 = DIRECTION ( 'NONE',  ( 0.0000000000000000000, 0.0000000000000000000, 1.000000000000000000 ) ) ;
#183 = FACE_OUTER_BOUND ( 'NONE', #52, .T. ) ;
#184 = CARTESIAN_POINT ( 'NONE',  ( 0.0000000000000000000, 0.0000000000000000000, 0.0000000000000000000 ) ) ;
#185 = AXIS2_PLACEMENT_3D ( 'NONE', #14, #182, #263 ) ;
#186 = CARTESIAN_POINT ( 'NONE',  ( -17.49999999999999645, 0.0000000000000000000, 3.000000000000000000 ) ) ;
#187 = CARTESIAN_POINT ( 'NONE',  ( 0.0000000000000000000, 0.0000000000000000000, 3.799999999999999822 ) ) ;
#188 = EDGE_CURVE ( 'NONE', #271, #291, #145, .T. ) ;
#189 = DIRECTION ( 'NONE',  ( 1.000000000000000000, 0.0000000000000000000, 0.0000000000000000000 ) ) ;
#190 = EDGE_LOOP ( 'NONE', ( #20, #207 ) ) ;
#191 = AXIS2_PLACEMENT_3D ( 'NONE', #180, #143, #34 ) ;
#192 = FACE_OUTER_BOUND ( 'NONE', #157, .T. ) ;
#193 = AXIS2_PLACEMENT_3D ( 'NONE', #299, #47, #71 ) ;
#194 = VECTOR ( 'NONE', #252, 1000.000000000000000 ) ;
#195 = EDGE_CURVE ( 'NONE', #42, #92, #28, .T. ) ;
#196 = DIRECTION ( 'NONE',  ( 0.0000000000000000000, 0.0000000000000000000, 1.000000000000000000 ) ) ;
#197 = DIRECTION ( 'NONE',  ( 1.000000000000000000, 0.0000000000000000000, 0.0000000000000000000 ) ) ;
#198 = ORIENTED_EDGE ( 'NONE', *, *, #243, .F. ) ;
#199 = UNCERTAINTY_MEASURE_WITH_UNIT (LENGTH_MEASURE( 1.000000000000000082E-05 ), #175, 'distance_accuracy_value', 'NONE');
#200 =( NAMED_UNIT ( * ) SI_UNIT ( $, .STERADIAN. ) SOLID_ANGLE_UNIT ( ) );
#201 = ADVANCED_FACE ( 'NONE', ( #10 ), #77, .T. ) ;
#202 = EDGE_CURVE ( 'NONE', #43, #120, #68, .T. ) ;
#203 = ORIENTED_EDGE ( 'NONE', *, *, #290, .T. ) ;
#204 = CIRCLE ( 'NONE', #222, 16.00000000000000000 ) ;
#205 = AXIS2_PLACEMENT_3D ( 'NONE', #184, #232, #211 ) ;
#206 = DIRECTION ( 'NONE',  ( 0.0000000000000000000, 0.0000000000000000000, 1.000000000000000000 ) ) ;
#207 = ORIENTED_EDGE ( 'NONE', *, *, #243, .T. ) ;
#208 =( LENGTH_UNIT ( ) NAMED_UNIT ( * ) SI_UNIT ( .MILLI., .METRE. ) );
#209 = DIRECTION ( 'NONE',  ( 0.0000000000000000000, 0.0000000000000000000, 1.000000000000000000 ) ) ;
#210 = ORIENTED_EDGE ( 'NONE', *, *, #246, .F. ) ;
#211 = DIRECTION ( 'NONE',  ( 1.000000000000000000, 0.0000000000000000000, 0.0000000000000000000 ) ) ;
#212 = DIRECTION ( 'NONE',  ( 0.0000000000000000000, 0.0000000000000000000, 1.000000000000000000 ) ) ;
#213 = PLANE ( 'NONE',  #177 ) ;
#214 = ORIENTED_EDGE ( 'NONE', *, *, #217, .F. ) ;
#215 = STYLED_ITEM ( 'NONE', ( #266 ), #280 ) ;
#216 = CARTESIAN_POINT ( 'NONE',  ( -16.10000000000000142, 0.0000000000000000000, 3.799999999999999822 ) ) ;
#217 = EDGE_CURVE ( 'NONE', #278, #43, #268, .T. ) ;
#218 = EDGE_LOOP ( 'NONE', ( #76, #294 ) ) ;
#219 = VECTOR ( 'NONE', #160, 1000.000000000000000 ) ;
#220 = FACE_OUTER_BOUND ( 'NONE', #267, .T. ) ;
#221 = UNCERTAINTY_MEASURE_WITH_UNIT (LENGTH_MEASURE( 1.000000000000000082E-05 ), #48, 'distance_accuracy_value', 'NONE');
#222 = AXIS2_PLACEMENT_3D ( 'NONE', #15, #165, #189 ) ;
#223 = VERTEX_POINT ( 'NONE', #121 ) ;
#224 = DIRECTION ( 'NONE',  ( 0.0000000000000000000, 0.0000000000000000000, 1.000000000000000000 ) ) ;
#225 = DIRECTION ( 'NONE',  ( -1.000000000000000000, 0.0000000000000000000, 0.0000000000000000000 ) ) ;
#226 = FACE_OUTER_BOUND ( 'NONE', #218, .T. ) ;
#227 = DIRECTION ( 'NONE',  ( 0.0000000000000000000, 0.0000000000000000000, 1.000000000000000000 ) ) ;
#228 = AXIS2_PLACEMENT_3D ( 'NONE', #91, #248, #247 ) ;
#229 = EDGE_CURVE ( 'NONE', #223, #92, #298, .T. ) ;
#230 = VERTEX_POINT ( 'NONE', #33 ) ;
#231 = VECTOR ( 'NONE', #281, 1000.000000000000000 ) ;
#232 = DIRECTION ( 'NONE',  ( 0.0000000000000000000, 0.0000000000000000000, 1.000000000000000000 ) ) ;
#233 = DIRECTION ( 'NONE',  ( 0.0000000000000000000, 0.0000000000000000000, 1.000000000000000000 ) ) ;
#234 = CARTESIAN_POINT ( 'NONE',  ( -16.10000000000000142, 0.0000000000000000000, 3.799999999999999822 ) ) ;
#235 = AXIS2_PLACEMENT_3D ( 'NONE', #153, #227, #134 ) ;
#236 = COLOUR_RGB ( '',0.7921568627450980005, 0.8196078431372548767, 0.9333333333333333481 ) ;
#237 = DIRECTION ( 'NONE',  ( 1.000000000000000000, 0.0000000000000000000, -0.0000000000000000000 ) ) ;
#238 = UNCERTAINTY_MEASURE_WITH_UNIT (LENGTH_MEASURE( 1.000000000000000082E-05 ), #208, 'distance_accuracy_value', 'NONE');
#239 = FILL_AREA_STYLE ('',( #85 ) ) ;
#240 = DIRECTION ( 'NONE',  ( 1.000000000000000000, 0.0000000000000000000, -0.0000000000000000000 ) ) ;
#241 = EDGE_LOOP ( 'NONE', ( #265, #214, #106, #130 ) ) ;
#242 = LINE ( 'NONE', #186, #262 ) ;
#243 = EDGE_CURVE ( 'NONE', #42, #147, #152, .T. ) ;
#244 = ORIENTED_EDGE ( 'NONE', *, *, #166, .F. ) ;
#245 = CARTESIAN_POINT ( 'NONE',  ( -16.00000000000000000, 0.0000000000000000000, 3.799999999999999822 ) ) ;
#246 = EDGE_CURVE ( 'NONE', #278, #89, #168, .T. ) ;
#247 = DIRECTION ( 'NONE',  ( 1.000000000000000000, 0.0000000000000000000, 0.0000000000000000000 ) ) ;
#248 = DIRECTION ( 'NONE',  ( 0.0000000000000000000, 0.0000000000000000000, 1.000000000000000000 ) ) ;
#249 = CIRCLE ( 'NONE', #7, 16.00000000000000000 ) ;
#250 = APPLICATION_PROTOCOL_DEFINITION ( 'draft international standard', 'automotive_design', 1998, #24 ) ;
#251 = STYLED_ITEM ( 'NONE', ( #39 ), #293 ) ;
#252 = DIRECTION ( 'NONE',  ( -0.0000000000000000000, -0.0000000000000000000, -1.000000000000000000 ) ) ;
#253 =( NAMED_UNIT ( * ) PLANE_ANGLE_UNIT ( ) SI_UNIT ( $, .RADIAN. ) );
#254 = ADVANCED_FACE ( 'NONE', ( #256, #103 ), #213, .T. ) ;
#255 = EDGE_LOOP ( 'NONE', ( #98, #114 ) ) ;
#256 = FACE_BOUND ( 'NONE', #148, .T. ) ;
#257 = PRESENTATION_LAYER_ASSIGNMENT (  '', '', ( #251 ) ) ;
#258 = CARTESIAN_POINT ( 'NONE',  ( 0.0000000000000000000, 0.0000000000000000000, 6.000000000000000000 ) ) ;
#259 = DIRECTION ( 'NONE',  ( 1.000000000000000000, 0.0000000000000000000, 0.0000000000000000000 ) ) ;
#260 = CARTESIAN_POINT ( 'NONE',  ( -16.00000000000000000, 0.0000000000000000000, 6.000000000000000000 ) ) ;
#261 = DIRECTION ( 'NONE',  ( -1.000000000000000000, 0.0000000000000000000, 0.0000000000000000000 ) ) ;
#262 = VECTOR ( 'NONE', #29, 1000.000000000000000 ) ;
#263 = DIRECTION ( 'NONE',  ( 1.000000000000000000, 0.0000000000000000000, 0.0000000000000000000 ) ) ;
#264 = DIRECTION ( 'NONE',  ( 1.000000000000000000, 0.0000000000000000000, 0.0000000000000000000 ) ) ;
#265 = ORIENTED_EDGE ( 'NONE', *, *, #202, .F. ) ;
#266 = PRESENTATION_STYLE_ASSIGNMENT (( #30 ) ) ;
#267 = EDGE_LOOP ( 'NONE', ( #128, #74, #203, #138 ) ) ;
#268 = CIRCLE ( 'NONE', #84, 16.10000000000000142 ) ;
#269 = AXIS2_PLACEMENT_3D ( 'NONE', #258, #5, #9 ) ;
#270 = EDGE_LOOP ( 'NONE', ( #31, #37, #279, #210 ) ) ;
#271 = VERTEX_POINT ( 'NONE', #287 ) ;
#272 = PRODUCT_DEFINITION ( 'UNKNOWN', '', #57, #88 ) ;
#273 = CARTESIAN_POINT ( 'NONE',  ( 0.0000000000000000000, 0.0000000000000000000, 0.0000000000000000000 ) ) ;
#274 = ORIENTED_EDGE ( 'NONE', *, *, #155, .T. ) ;
#275 = CARTESIAN_POINT ( 'NONE',  ( -16.10000000000000142, 0.0000000000000000000, 3.000000000000000000 ) ) ;
#276 = DIRECTION ( 'NONE',  ( -0.0000000000000000000, -0.0000000000000000000, -1.000000000000000000 ) ) ;
#277 = ADVANCED_FACE ( 'NONE', ( #65 ), #11, .T. ) ;
#278 = VERTEX_POINT ( 'NONE', #216 ) ;
#279 = ORIENTED_EDGE ( 'NONE', *, *, #45, .T. ) ;
#280 = ADVANCED_BREP_SHAPE_REPRESENTATION ( '02234510d', ( #293, #3 ), #110 ) ;
#281 = DIRECTION ( 'NONE',  ( -0.0000000000000000000, -0.0000000000000000000, -1.000000000000000000 ) ) ;
#282 = ORIENTED_EDGE ( 'NONE', *, *, #45, .F. ) ;
#283 = SURFACE_STYLE_FILL_AREA ( #140 ) ;
#284 = CARTESIAN_POINT ( 'NONE',  ( 0.0000000000000000000, 0.0000000000000000000, 0.0000000000000000000 ) ) ;
#285 = EDGE_LOOP ( 'NONE', ( #274, #178 ) ) ;
#286 = DIRECTION ( 'NONE',  ( 1.000000000000000000, 0.0000000000000000000, -0.0000000000000000000 ) ) ;
#287 = CARTESIAN_POINT ( 'NONE',  ( 16.00000000000000000, 1.959434878635765131E-15, 6.000000000000000000 ) ) ;
#288 = AXIS2_PLACEMENT_3D ( 'NONE', #122, #12, #102 ) ;
#289 = CARTESIAN_POINT ( 'NONE',  ( 16.10000000000000142, 1.971681346627238883E-15, 3.000000000000000000 ) ) ;
#290 = EDGE_CURVE ( 'NONE', #230, #46, #204, .T. ) ;
#291 = VERTEX_POINT ( 'NONE', #60 ) ;
#292 = ORIENTED_EDGE ( 'NONE', *, *, #26, .F. ) ;
#293 = MANIFOLD_SOLID_BREP ( 'Aufsatz-Linear austragen3', #67 ) ;
#294 = ORIENTED_EDGE ( 'NONE', *, *, #13, .F. ) ;
#295 = AXIS2_PLACEMENT_3D ( 'NONE', #273, #196, #197 ) ;
#296 = CARTESIAN_POINT ( 'NONE',  ( 0.0000000000000000000, 0.0000000000000000000, 0.0000000000000000000 ) ) ;
#297 = FACE_OUTER_BOUND ( 'NONE', #241, .T. ) ;
#298 = CIRCLE ( 'NONE', #205, 17.49999999999999645 ) ;
#299 = CARTESIAN_POINT ( 'NONE',  ( 0.0000000000000000000, 0.0000000000000000000, 3.799999999999999822 ) ) ;
#300 = DIRECTION ( 'NONE',  ( 0.0000000000000000000, 0.0000000000000000000, 1.000000000000000000 ) ) ;
ENDSEC;
END-ISO-10303-21;
