ISO-10303-21;
HEADER;
FILE_DESCRIPTION (( 'STEP AP214' ),
    '1' );
FILE_NAME ('0236410_d.STEP',
    '2017-07-24T12:09:26',
    ( '' ),
    ( '' ),
    'SwSTEP 2.0',
    'SolidWorks 2014',
    '' );
FILE_SCHEMA (( 'AUTOMOTIVE_DESIGN' ));
ENDSEC;

DATA;
#1 = FACE_OUTER_BOUND ( 'NONE', #148, .T. ) ;
#2 = EDGE_CURVE ( 'NONE', #360, #81, #30, .T. ) ;
#3 = LINE ( 'NONE', #284, #346 ) ;
#4 = ORIENTED_EDGE ( 'NONE', *, *, #107, .T. ) ;
#5 = CIRCLE ( 'NONE', #70, 13.10000000000000100 ) ;
#6 = ORIENTED_EDGE ( 'NONE', *, *, #385, .T. ) ;
#7 = DIRECTION ( 'NONE',  ( -0.0000000000000000000, -1.000000000000000000, -0.0000000000000000000 ) ) ;
#8 = CARTESIAN_POINT ( 'NONE',  ( 0.0000000000000000000, 5.000000000000000000, -13.10000000000000100 ) ) ;
#9 = LINE ( 'NONE', #32, #356 ) ;
#10 =( LENGTH_UNIT ( ) NAMED_UNIT ( * ) SI_UNIT ( .MILLI., .METRE. ) );
#11 = DIRECTION ( 'NONE',  ( 0.0000000000000000000, 1.000000000000000000, 0.0000000000000000000 ) ) ;
#12 = CARTESIAN_POINT ( 'NONE',  ( 0.0000000000000000000, -8.000000000000001800, 0.0000000000000000000 ) ) ;
#13 = ADVANCED_FACE ( 'NONE', ( #108 ), #269, .T. ) ;
#14 = VERTEX_POINT ( 'NONE', #372 ) ;
#15 =( NAMED_UNIT ( * ) PLANE_ANGLE_UNIT ( ) SI_UNIT ( $, .RADIAN. ) );
#16 = AXIS2_PLACEMENT_3D ( 'NONE', #362, #242, #49 ) ;
#17 = DIRECTION ( 'NONE',  ( 0.0000000000000000000, 1.000000000000000000, 0.0000000000000000000 ) ) ;
#18 = VECTOR ( 'NONE', #313, 1000.000000000000100 ) ;
#19 = PLANE ( 'NONE',  #361 ) ;
#20 = CARTESIAN_POINT ( 'NONE',  ( 0.0000000000000000000, -8.500000000000000000, 0.0000000000000000000 ) ) ;
#21 = DIRECTION ( 'NONE',  ( 0.0000000000000000000, 0.0000000000000000000, 1.000000000000000000 ) ) ;
#22 = EDGE_LOOP ( 'NONE', ( #307, #4, #92, #134 ) ) ;
#23 =( LENGTH_UNIT ( ) NAMED_UNIT ( * ) SI_UNIT ( .MILLI., .METRE. ) );
#24 = PRODUCT_CONTEXT ( 'NONE', #308, 'mechanical' ) ;
#25 = LINE ( 'NONE', #368, #18 ) ;
#26 = VERTEX_POINT ( 'NONE', #282 ) ;
#27 = AXIS2_PLACEMENT_3D ( 'NONE', #63, #119, #311 ) ;
#28 = DIRECTION ( 'NONE',  ( 0.0000000000000000000, 1.000000000000000000, 0.0000000000000000000 ) ) ;
#29 = ORIENTED_EDGE ( 'NONE', *, *, #153, .T. ) ;
#30 = CIRCLE ( 'NONE', #146, 13.10000000000000100 ) ;
#31 = AXIS2_PLACEMENT_3D ( 'NONE', #12, #226, #39 ) ;
#32 = CARTESIAN_POINT ( 'NONE',  ( 1.592040838891559300E-015, 7.000000000000000000, 13.00000000000000200 ) ) ;
#33 = DIRECTION ( 'NONE',  ( 0.0000000000000000000, 0.0000000000000000000, 1.000000000000000000 ) ) ;
#34 = EDGE_CURVE ( 'NONE', #277, #160, #198, .T. ) ;
#35 = SURFACE_SIDE_STYLE ('',( #338 ) ) ;
#36 = CIRCLE ( 'NONE', #278, 13.10000000000000100 ) ;
#37 = ORIENTED_EDGE ( 'NONE', *, *, #243, .T. ) ;
#38 = ADVANCED_FACE ( 'NONE', ( #175 ), #163, .T. ) ;
#39 = DIRECTION ( 'NONE',  ( 0.0000000000000000000, 0.0000000000000000000, -1.000000000000000000 ) ) ;
#40 = FILL_AREA_STYLE_COLOUR ( '', #204 ) ;
#41 = DIRECTION ( 'NONE',  ( 0.0000000000000000000, 1.000000000000000000, 0.0000000000000000000 ) ) ;
#42 = ORIENTED_EDGE ( 'NONE', *, *, #339, .T. ) ;
#43 = CARTESIAN_POINT ( 'NONE',  ( 0.0000000000000000000, 5.000000000000000000, -13.10000000000000100 ) ) ;
#44 = DIRECTION ( 'NONE',  ( 8.659560562354932900E-017, 0.7071067811865474600, -0.7071067811865474600 ) ) ;
#45 = SURFACE_STYLE_FILL_AREA ( #261 ) ;
#46 = DIRECTION ( 'NONE',  ( 0.0000000000000000000, 0.0000000000000000000, -1.000000000000000000 ) ) ;
#47 =( GEOMETRIC_REPRESENTATION_CONTEXT ( 3 ) GLOBAL_UNCERTAINTY_ASSIGNED_CONTEXT ( ( #382 ) ) GLOBAL_UNIT_ASSIGNED_CONTEXT ( ( #10, #319, #214 ) ) REPRESENTATION_CONTEXT ( 'NONE', 'WORKASPACE' ) );
#48 =( NAMED_UNIT ( * ) SI_UNIT ( $, .STERADIAN. ) SOLID_ANGLE_UNIT ( ) );
#49 = DIRECTION ( 'NONE',  ( 1.000000000000000000, 0.0000000000000000000, 0.0000000000000000000 ) ) ;
#50 = UNCERTAINTY_MEASURE_WITH_UNIT (LENGTH_MEASURE( 1.000000000000000100E-005 ), #195, 'distance_accuracy_value', 'NONE');
#51 = VERTEX_POINT ( 'NONE', #220 ) ;
#52 = UNCERTAINTY_MEASURE_WITH_UNIT (LENGTH_MEASURE( 1.000000000000000100E-005 ), #170, 'distance_accuracy_value', 'NONE');
#53 = APPLICATION_PROTOCOL_DEFINITION ( 'draft international standard', 'automotive_design', 1998, #245 ) ;
#54 = AXIS2_PLACEMENT_3D ( 'NONE', #91, #352, #65 ) ;
#55 = VERTEX_POINT ( 'NONE', #316 ) ;
#56 = EDGE_CURVE ( 'NONE', #14, #137, #9, .T. ) ;
#57 = EDGE_LOOP ( 'NONE', ( #251, #77, #273, #68 ) ) ;
#58 = CIRCLE ( 'NONE', #345, 2.000000000000000000 ) ;
#59 = ORIENTED_EDGE ( 'NONE', *, *, #34, .T. ) ;
#60 = DIRECTION ( 'NONE',  ( -0.0000000000000000000, -1.000000000000000000, -0.0000000000000000000 ) ) ;
#61 = CARTESIAN_POINT ( 'NONE',  ( 0.0000000000000000000, 5.000000000000000000, 0.0000000000000000000 ) ) ;
#62 = CIRCLE ( 'NONE', #310, 2.000000000000000000 ) ;
#63 = CARTESIAN_POINT ( 'NONE',  ( 0.0000000000000000000, -8.500000000000000000, 0.0000000000000000000 ) ) ;
#64 = ADVANCED_FACE ( 'NONE', ( #79, #257 ), #279, .T. ) ;
#65 = DIRECTION ( 'NONE',  ( 0.0000000000000000000, 0.0000000000000000000, -1.000000000000000000 ) ) ;
#66 = MECHANICAL_DESIGN_GEOMETRIC_PRESENTATION_REPRESENTATION (  '', ( #106 ), #47 ) ;
#67 = SURFACE_SIDE_STYLE ('',( #45 ) ) ;
#68 = ORIENTED_EDGE ( 'NONE', *, *, #153, .F. ) ;
#69 = CARTESIAN_POINT ( 'NONE',  ( 0.0000000000000000000, 0.0000000000000000000, 0.0000000000000000000 ) ) ;
#70 = AXIS2_PLACEMENT_3D ( 'NONE', #228, #41, #263 ) ;
#71 = PRODUCT_DEFINITION ( 'UNKNOWN', '', #314, #306 ) ;
#72 = CYLINDRICAL_SURFACE ( 'NONE', #80, 13.10000000000000100 ) ;
#73 = DIRECTION ( 'NONE',  ( 0.0000000000000000000, -0.0000000000000000000, 1.000000000000000000 ) ) ;
#74 = CARTESIAN_POINT ( 'NONE',  ( 1.604287306883032800E-015, 5.000000000000000000, 13.10000000000000100 ) ) ;
#75 = ORIENTED_EDGE ( 'NONE', *, *, #385, .F. ) ;
#76 = ORIENTED_EDGE ( 'NONE', *, *, #318, .T. ) ;
#77 = ORIENTED_EDGE ( 'NONE', *, *, #357, .F. ) ;
#78 = DIRECTION ( 'NONE',  ( 1.000000000000000000, 0.0000000000000000000, 0.0000000000000000000 ) ) ;
#79 = FACE_OUTER_BOUND ( 'NONE', #365, .T. ) ;
#80 = AXIS2_PLACEMENT_3D ( 'NONE', #61, #60, #342 ) ;
#81 = VERTEX_POINT ( 'NONE', #8 ) ;
#82 = EDGE_CURVE ( 'NONE', #140, #277, #25, .T. ) ;
#83 = ORIENTED_EDGE ( 'NONE', *, *, #128, .T. ) ;
#84 = DIRECTION ( 'NONE',  ( 0.0000000000000000000, 1.000000000000000000, 0.0000000000000000000 ) ) ;
#85 = AXIS2_PLACEMENT_3D ( 'NONE', #189, #253, #349 ) ;
#86 = DIRECTION ( 'NONE',  ( 0.0000000000000000000, 0.0000000000000000000, 1.000000000000000000 ) ) ;
#87 = VECTOR ( 'NONE', #131, 1000.000000000000000 ) ;
#88 = VECTOR ( 'NONE', #180, 1000.000000000000000 ) ;
#89 = FILL_AREA_STYLE_COLOUR ( '', #97 ) ;
#90 = DIRECTION ( 'NONE',  ( 0.0000000000000000000, 1.000000000000000000, 0.0000000000000000000 ) ) ;
#91 = CARTESIAN_POINT ( 'NONE',  ( 0.0000000000000000000, 7.000000000000000000, 0.0000000000000000000 ) ) ;
#92 = ORIENTED_EDGE ( 'NONE', *, *, #218, .T. ) ;
#93 = ADVANCED_FACE ( 'NONE', ( #320 ), #72, .T. ) ;
#94 =( LENGTH_UNIT ( ) NAMED_UNIT ( * ) SI_UNIT ( .MILLI., .METRE. ) );
#95 = CARTESIAN_POINT ( 'NONE',  ( 0.0000000000000000000, 0.0000000000000000000, 0.0000000000000000000 ) ) ;
#96 = VECTOR ( 'NONE', #237, 1000.000000000000000 ) ;
#97 = COLOUR_RGB ( '',0.7921568627450980000, 0.8196078431372548800, 0.9333333333333333500 ) ;
#98 = CARTESIAN_POINT ( 'NONE',  ( 0.0000000000000000000, -8.000000000000001800, 2.000000000000000000 ) ) ;
#99 = ORIENTED_EDGE ( 'NONE', *, *, #243, .F. ) ;
#100 = DIRECTION ( 'NONE',  ( 0.0000000000000000000, 1.000000000000000000, 0.0000000000000000000 ) ) ;
#101 = AXIS2_PLACEMENT_3D ( 'NONE', #20, #236, #46 ) ;
#102 = DIRECTION ( 'NONE',  ( 0.0000000000000000000, 1.000000000000000000, 0.0000000000000000000 ) ) ;
#103 = CYLINDRICAL_SURFACE ( 'NONE', #54, 13.00000000000000200 ) ;
#104 = EDGE_LOOP ( 'NONE', ( #118, #75 ) ) ;
#105 = FILL_AREA_STYLE_COLOUR ( '', #395 ) ;
#106 = STYLED_ITEM ( 'NONE', ( #248 ), #125 ) ;
#107 = EDGE_CURVE ( 'NONE', #145, #26, #3, .T. ) ;
#108 = FACE_OUTER_BOUND ( 'NONE', #329, .T. ) ;
#109 = AXIS2_PLACEMENT_3D ( 'NONE', #157, #379, #191 ) ;
#110 = SHAPE_DEFINITION_REPRESENTATION ( #353, #196 ) ;
#111 = VECTOR ( 'NONE', #162, 1000.000000000000000 ) ;
#112 = CIRCLE ( 'NONE', #101, 1.500000000000001300 ) ;
#113 = CIRCLE ( 'NONE', #176, 2.000000000000000000 ) ;
#114 = EDGE_LOOP ( 'NONE', ( #312, #271 ) ) ;
#115 = PRODUCT_DEFINITION_SHAPE ( 'NONE', 'NONE',  #71 ) ;
#116 = EDGE_LOOP ( 'NONE', ( #295, #350, #255, #168 ) ) ;
#117 = CARTESIAN_POINT ( 'NONE',  ( 0.0000000000000000000, 5.000000000000000000, 0.0000000000000000000 ) ) ;
#118 = ORIENTED_EDGE ( 'NONE', *, *, #194, .F. ) ;
#119 = DIRECTION ( 'NONE',  ( -0.0000000000000000000, 1.000000000000000000, -0.0000000000000000000 ) ) ;
#120 = PRODUCT ( '0236410_d', '0236410_d', '', ( #364 ) ) ;
#121 = PRESENTATION_LAYER_ASSIGNMENT (  '', '', ( #322 ) ) ;
#122 = CYLINDRICAL_SURFACE ( 'NONE', #85, 13.00000000000000200 ) ;
#123 = ORIENTED_EDGE ( 'NONE', *, *, #265, .T. ) ;
#124 = CARTESIAN_POINT ( 'NONE',  ( 2.449293598294706400E-016, -8.000000000000001800, -2.000000000000000000 ) ) ;
#125 = ADVANCED_FACE ( 'NONE', ( #152 ), #359, .T. ) ;
#126 = AXIS2_PLACEMENT_3D ( 'NONE', #117, #28, #219 ) ;
#127 =( NAMED_UNIT ( * ) SI_UNIT ( $, .STERADIAN. ) SOLID_ANGLE_UNIT ( ) );
#128 = EDGE_CURVE ( 'NONE', #81, #360, #36, .T. ) ;
#129 = DIRECTION ( 'NONE',  ( 0.0000000000000000000, 0.0000000000000000000, 1.000000000000000000 ) ) ;
#130 = VERTEX_POINT ( 'NONE', #154 ) ;
#131 = DIRECTION ( 'NONE',  ( -0.0000000000000000000, -1.000000000000000000, -0.0000000000000000000 ) ) ;
#132 = STYLED_ITEM ( 'NONE', ( #167 ), #193 ) ;
#133 =( GEOMETRIC_REPRESENTATION_CONTEXT ( 3 ) GLOBAL_UNCERTAINTY_ASSIGNED_CONTEXT ( ( #52 ) ) GLOBAL_UNIT_ASSIGNED_CONTEXT ( ( #170, #392, #209 ) ) REPRESENTATION_CONTEXT ( 'NONE', 'WORKASPACE' ) );
#134 = ORIENTED_EDGE ( 'NONE', *, *, #34, .F. ) ;
#135 = CARTESIAN_POINT ( 'NONE',  ( 0.0000000000000000000, -8.500000000000000000, 0.0000000000000000000 ) ) ;
#136 = EDGE_CURVE ( 'NONE', #55, #14, #287, .T. ) ;
#137 = VERTEX_POINT ( 'NONE', #375 ) ;
#138 = CARTESIAN_POINT ( 'NONE',  ( 1.604287306883032800E-015, 5.000000000000000000, 13.10000000000000100 ) ) ;
#139 = SURFACE_SIDE_STYLE ('',( #315 ) ) ;
#140 = VERTEX_POINT ( 'NONE', #348 ) ;
#141 = APPLICATION_PROTOCOL_DEFINITION ( 'draft international standard', 'automotive_design', 1998, #336 ) ;
#142 = AXIS2_PLACEMENT_3D ( 'NONE', #169, #390, #208 ) ;
#143 = PRESENTATION_LAYER_ASSIGNMENT (  '', '', ( #106 ) ) ;
#144 = PRESENTATION_STYLE_ASSIGNMENT (( #383 ) ) ;
#145 = VERTEX_POINT ( 'NONE', #124 ) ;
#146 = AXIS2_PLACEMENT_3D ( 'NONE', #150, #84, #33 ) ;
#147 =( GEOMETRIC_REPRESENTATION_CONTEXT ( 3 ) GLOBAL_UNCERTAINTY_ASSIGNED_CONTEXT ( ( #50 ) ) GLOBAL_UNIT_ASSIGNED_CONTEXT ( ( #195, #15, #230 ) ) REPRESENTATION_CONTEXT ( 'NONE', 'WORKASPACE' ) );
#148 = EDGE_LOOP ( 'NONE', ( #190, #42 ) ) ;
#149 = STYLED_ITEM ( 'NONE', ( #144 ), #227 ) ;
#150 = CARTESIAN_POINT ( 'NONE',  ( 0.0000000000000000000, 5.000000000000000000, 0.0000000000000000000 ) ) ;
#151 = AXIS2_PLACEMENT_3D ( 'NONE', #305, #274, #78 ) ;
#152 = FACE_OUTER_BOUND ( 'NONE', #224, .T. ) ;
#153 = EDGE_CURVE ( 'NONE', #145, #277, #374, .T. ) ;
#154 = CARTESIAN_POINT ( 'NONE',  ( 2.143131898507868800E-016, -8.500000000000000000, -1.500000000000001300 ) ) ;
#155 = DIRECTION ( 'NONE',  ( -0.0000000000000000000, 1.000000000000000000, -0.0000000000000000000 ) ) ;
#156 = ADVANCED_FACE ( 'NONE', ( #276 ), #122, .T. ) ;
#157 = CARTESIAN_POINT ( 'NONE',  ( 0.0000000000000000000, 5.000000000000000000, 0.0000000000000000000 ) ) ;
#158 = ORIENTED_EDGE ( 'NONE', *, *, #318, .F. ) ;
#159 = SURFACE_SIDE_STYLE ('',( #366 ) ) ;
#160 = VERTEX_POINT ( 'NONE', #291 ) ;
#161 = CARTESIAN_POINT ( 'NONE',  ( 0.0000000000000000000, 5.000000000000000000, 0.0000000000000000000 ) ) ;
#162 = DIRECTION ( 'NONE',  ( -0.0000000000000000000, -1.000000000000000000, -0.0000000000000000000 ) ) ;
#163 = CONICAL_SURFACE ( 'NONE', #216, 1.500000000000001300, 0.7853981633974482800 ) ;
#164 = CARTESIAN_POINT ( 'NONE',  ( 0.0000000000000000000, 0.0000000000000000000, 0.0000000000000000000 ) ) ;
#165 =( GEOMETRIC_REPRESENTATION_CONTEXT ( 3 ) GLOBAL_UNCERTAINTY_ASSIGNED_CONTEXT ( ( #384 ) ) GLOBAL_UNIT_ASSIGNED_CONTEXT ( ( #23, #238, #48 ) ) REPRESENTATION_CONTEXT ( 'NONE', 'WORKASPACE' ) );
#166 = CARTESIAN_POINT ( 'NONE',  ( 0.0000000000000000000, -8.500000000000000000, 0.0000000000000000000 ) ) ;
#167 = PRESENTATION_STYLE_ASSIGNMENT (( #292 ) ) ;
#168 = ORIENTED_EDGE ( 'NONE', *, *, #82, .F. ) ;
#169 = CARTESIAN_POINT ( 'NONE',  ( 0.0000000000000000000, 0.0000000000000000000, 0.0000000000000000000 ) ) ;
#170 =( LENGTH_UNIT ( ) NAMED_UNIT ( * ) SI_UNIT ( .MILLI., .METRE. ) );
#171 = EDGE_CURVE ( 'NONE', #275, #137, #213, .T. ) ;
#172 = CONICAL_SURFACE ( 'NONE', #303, 1.500000000000001300, 0.7853981633974482800 ) ;
#173 = MECHANICAL_DESIGN_GEOMETRIC_PRESENTATION_REPRESENTATION (  '', ( #149 ), #147 ) ;
#174 = APPLICATION_CONTEXT ( 'automotive_design' ) ;
#175 = FACE_OUTER_BOUND ( 'NONE', #116, .T. ) ;
#176 = AXIS2_PLACEMENT_3D ( 'NONE', #95, #327, #129 ) ;
#177 = EDGE_LOOP ( 'NONE', ( #351, #185 ) ) ;
#178 = PRODUCT_DEFINITION_FORMATION_WITH_SPECIFIED_SOURCE ( 'ANY', '', #184, .NOT_KNOWN. ) ;
#179 = DIRECTION ( 'NONE',  ( -0.0000000000000000000, -1.000000000000000000, -0.0000000000000000000 ) ) ;
#180 = DIRECTION ( 'NONE',  ( -0.0000000000000000000, 1.000000000000000000, -0.0000000000000000000 ) ) ;
#181 = ORIENTED_EDGE ( 'NONE', *, *, #371, .T. ) ;
#182 = CARTESIAN_POINT ( 'NONE',  ( 0.0000000000000000000, 5.000000000000000000, 0.0000000000000000000 ) ) ;
#183 = SURFACE_STYLE_USAGE ( .BOTH. , #35 ) ;
#184 = PRODUCT ( '0236410_d', '0236410_d', '', ( #24 ) ) ;
#185 = ORIENTED_EDGE ( 'NONE', *, *, #343, .T. ) ;
#186 = CARTESIAN_POINT ( 'NONE',  ( 0.0000000000000000000, 5.000000000000000000, 0.0000000000000000000 ) ) ;
#187 = AXIS2_PLACEMENT_3D ( 'NONE', #166, #389, #207 ) ;
#188 = ADVANCED_FACE ( 'NONE', ( #302 ), #103, .T. ) ;
#189 = CARTESIAN_POINT ( 'NONE',  ( 0.0000000000000000000, 7.000000000000000000, 0.0000000000000000000 ) ) ;
#190 = ORIENTED_EDGE ( 'NONE', *, *, #357, .T. ) ;
#191 = DIRECTION ( 'NONE',  ( 0.0000000000000000000, 0.0000000000000000000, 1.000000000000000000 ) ) ;
#192 = AXIS2_PLACEMENT_3D ( 'NONE', #182, #7, #347 ) ;
#193 = MANIFOLD_SOLID_BREP ( 'Fase1', #378 ) ;
#194 = EDGE_CURVE ( 'NONE', #51, #285, #5, .T. ) ;
#195 =( LENGTH_UNIT ( ) NAMED_UNIT ( * ) SI_UNIT ( .MILLI., .METRE. ) );
#196 = ADVANCED_BREP_SHAPE_REPRESENTATION ( '0236410_d', ( #193, #16 ), #165 ) ;
#197 = AXIS2_PLACEMENT_3D ( 'NONE', #69, #17, #232 ) ;
#198 = LINE ( 'NONE', #222, #88 ) ;
#199 = DIRECTION ( 'NONE',  ( 0.0000000000000000000, 0.0000000000000000000, 1.000000000000000000 ) ) ;
#200 =( GEOMETRIC_REPRESENTATION_CONTEXT ( 3 ) GLOBAL_UNCERTAINTY_ASSIGNED_CONTEXT ( ( #341 ) ) GLOBAL_UNIT_ASSIGNED_CONTEXT ( ( #94, #325, #127 ) ) REPRESENTATION_CONTEXT ( 'NONE', 'WORKASPACE' ) );
#201 = DIRECTION ( 'NONE',  ( 0.0000000000000000000, -0.0000000000000000000, -1.000000000000000000 ) ) ;
#202 = DIRECTION ( 'NONE',  ( 0.0000000000000000000, 0.0000000000000000000, 1.000000000000000000 ) ) ;
#203 = CARTESIAN_POINT ( 'NONE',  ( 0.0000000000000000000, -8.500000000000000000, 0.0000000000000000000 ) ) ;
#204 = COLOUR_RGB ( '',0.7921568627450980000, 0.8196078431372548800, 0.9333333333333333500 ) ;
#205 = ORIENTED_EDGE ( 'NONE', *, *, #343, .F. ) ;
#206 = FACE_BOUND ( 'NONE', #114, .T. ) ;
#207 = DIRECTION ( 'NONE',  ( 0.0000000000000000000, 0.0000000000000000000, -1.000000000000000000 ) ) ;
#208 = DIRECTION ( 'NONE',  ( 0.0000000000000000000, 0.0000000000000000000, 1.000000000000000000 ) ) ;
#209 =( NAMED_UNIT ( * ) SI_UNIT ( $, .STERADIAN. ) SOLID_ANGLE_UNIT ( ) );
#210 = FACE_OUTER_BOUND ( 'NONE', #104, .T. ) ;
#211 = ORIENTED_EDGE ( 'NONE', *, *, #309, .T. ) ;
#212 = APPLICATION_PROTOCOL_DEFINITION ( 'draft international standard', 'automotive_design', 1998, #308 ) ;
#213 = CIRCLE ( 'NONE', #109, 13.00000000000000200 ) ;
#214 =( NAMED_UNIT ( * ) SI_UNIT ( $, .STERADIAN. ) SOLID_ANGLE_UNIT ( ) );
#215 = EDGE_LOOP ( 'NONE', ( #340, #99 ) ) ;
#216 = AXIS2_PLACEMENT_3D ( 'NONE', #256, #344, #86 ) ;
#217 = EDGE_LOOP ( 'NONE', ( #326, #289, #76, #391 ) ) ;
#218 = EDGE_CURVE ( 'NONE', #26, #160, #113, .T. ) ;
#219 = DIRECTION ( 'NONE',  ( 0.0000000000000000000, -0.0000000000000000000, 1.000000000000000000 ) ) ;
#220 = CARTESIAN_POINT ( 'NONE',  ( 0.0000000000000000000, 0.0000000000000000000, -13.10000000000000100 ) ) ;
#221 = MECHANICAL_DESIGN_GEOMETRIC_PRESENTATION_REPRESENTATION (  '', ( #132 ), #200 ) ;
#222 = CARTESIAN_POINT ( 'NONE',  ( 0.0000000000000000000, -8.500000000000000000, 2.000000000000000000 ) ) ;
#223 = FILL_AREA_STYLE ('',( #89 ) ) ;
#224 = EDGE_LOOP ( 'NONE', ( #260, #29, #59, #211 ) ) ;
#225 = DIRECTION ( 'NONE',  ( 0.0000000000000000000, 0.0000000000000000000, 1.000000000000000000 ) ) ;
#226 = DIRECTION ( 'NONE',  ( 0.0000000000000000000, 1.000000000000000000, 0.0000000000000000000 ) ) ;
#227 = ADVANCED_FACE ( 'NONE', ( #324 ), #337, .T. ) ;
#228 = CARTESIAN_POINT ( 'NONE',  ( 0.0000000000000000000, 0.0000000000000000000, 0.0000000000000000000 ) ) ;
#229 = ORIENTED_EDGE ( 'NONE', *, *, #2, .F. ) ;
#230 =( NAMED_UNIT ( * ) SI_UNIT ( $, .STERADIAN. ) SOLID_ANGLE_UNIT ( ) );
#231 = PRESENTATION_STYLE_ASSIGNMENT (( #363 ) ) ;
#232 = DIRECTION ( 'NONE',  ( 0.0000000000000000000, -0.0000000000000000000, 1.000000000000000000 ) ) ;
#233 = LINE ( 'NONE', #301, #247 ) ;
#234 = CARTESIAN_POINT ( 'NONE',  ( 0.0000000000000000000, 7.000000000000000000, 0.0000000000000000000 ) ) ;
#235 = AXIS2_PLACEMENT_3D ( 'NONE', #304, #102, #333 ) ;
#236 = DIRECTION ( 'NONE',  ( 0.0000000000000000000, -1.000000000000000000, 0.0000000000000000000 ) ) ;
#237 = DIRECTION ( 'NONE',  ( -0.0000000000000000000, -1.000000000000000000, -0.0000000000000000000 ) ) ;
#238 =( NAMED_UNIT ( * ) PLANE_ANGLE_UNIT ( ) SI_UNIT ( $, .RADIAN. ) );
#239 = COLOUR_RGB ( '',0.7921568627450980000, 0.8196078431372548800, 0.9333333333333333500 ) ;
#240 = CIRCLE ( 'NONE', #235, 13.00000000000000200 ) ;
#241 = ORIENTED_EDGE ( 'NONE', *, *, #56, .T. ) ;
#242 = DIRECTION ( 'NONE',  ( 0.0000000000000000000, 0.0000000000000000000, 1.000000000000000000 ) ) ;
#243 = EDGE_CURVE ( 'NONE', #137, #275, #294, .T. ) ;
#244 = AXIS2_PLACEMENT_3D ( 'NONE', #293, #155, #266 ) ;
#245 = APPLICATION_CONTEXT ( 'automotive_design' ) ;
#246 = PRESENTATION_LAYER_ASSIGNMENT (  '', '', ( #132 ) ) ;
#247 = VECTOR ( 'NONE', #44, 1000.000000000000100 ) ;
#248 = PRESENTATION_STYLE_ASSIGNMENT (( #183 ) ) ;
#249 = PRODUCT_DEFINITION_CONTEXT ( 'detailed design', #245, 'design' ) ;
#250 = EDGE_LOOP ( 'NONE', ( #205, #241, #37, #158 ) ) ;
#251 = ORIENTED_EDGE ( 'NONE', *, *, #328, .F. ) ;
#252 = FACE_OUTER_BOUND ( 'NONE', #57, .T. ) ;
#253 = DIRECTION ( 'NONE',  ( -0.0000000000000000000, -1.000000000000000000, -0.0000000000000000000 ) ) ;
#254 = PRODUCT_RELATED_PRODUCT_CATEGORY ( 'part', '', ( #120 ) ) ;
#255 = ORIENTED_EDGE ( 'NONE', *, *, #299, .F. ) ;
#256 = CARTESIAN_POINT ( 'NONE',  ( 0.0000000000000000000, -8.500000000000000000, 0.0000000000000000000 ) ) ;
#257 = FACE_BOUND ( 'NONE', #215, .T. ) ;
#258 = MECHANICAL_DESIGN_GEOMETRIC_PRESENTATION_REPRESENTATION (  '', ( #322 ), #133 ) ;
#259 = ADVANCED_FACE ( 'NONE', ( #210, #206 ), #355, .F. ) ;
#260 = ORIENTED_EDGE ( 'NONE', *, *, #107, .F. ) ;
#261 = FILL_AREA_STYLE ('',( #40 ) ) ;
#262 = AXIS2_PLACEMENT_3D ( 'NONE', #288, #90, #321 ) ;
#263 = DIRECTION ( 'NONE',  ( 0.0000000000000000000, 0.0000000000000000000, 1.000000000000000000 ) ) ;
#264 = CIRCLE ( 'NONE', #142, 13.10000000000000100 ) ;
#265 = EDGE_CURVE ( 'NONE', #81, #51, #297, .T. ) ;
#266 = DIRECTION ( 'NONE',  ( 0.0000000000000000000, 0.0000000000000000000, 1.000000000000000000 ) ) ;
#267 = AXIS2_PLACEMENT_3D ( 'NONE', #161, #386, #199 ) ;
#268 = CARTESIAN_POINT ( 'NONE',  ( 1.604287306883032800E-015, 0.0000000000000000000, 13.10000000000000100 ) ) ;
#269 = CYLINDRICAL_SURFACE ( 'NONE', #192, 13.10000000000000100 ) ;
#270 = DIRECTION ( 'NONE',  ( 0.0000000000000000000, 1.000000000000000000, 0.0000000000000000000 ) ) ;
#271 = ORIENTED_EDGE ( 'NONE', *, *, #218, .F. ) ;
#272 = DIRECTION ( 'NONE',  ( 0.0000000000000000000, 1.000000000000000000, 0.0000000000000000000 ) ) ;
#273 = ORIENTED_EDGE ( 'NONE', *, *, #82, .T. ) ;
#274 = DIRECTION ( 'NONE',  ( 0.0000000000000000000, 0.0000000000000000000, 1.000000000000000000 ) ) ;
#275 = VERTEX_POINT ( 'NONE', #331 ) ;
#276 = FACE_OUTER_BOUND ( 'NONE', #217, .T. ) ;
#277 = VERTEX_POINT ( 'NONE', #98 ) ;
#278 = AXIS2_PLACEMENT_3D ( 'NONE', #186, #11, #225 ) ;
#279 = PLANE ( 'NONE',  #126 ) ;
#280 = FACE_OUTER_BOUND ( 'NONE', #177, .T. ) ;
#281 = ORIENTED_EDGE ( 'NONE', *, *, #194, .T. ) ;
#282 = CARTESIAN_POINT ( 'NONE',  ( 2.449293598294706400E-016, 0.0000000000000000000, -2.000000000000000000 ) ) ;
#283 = PRESENTATION_LAYER_ASSIGNMENT (  '', '', ( #149 ) ) ;
#284 = CARTESIAN_POINT ( 'NONE',  ( 2.449293598294706400E-016, -8.500000000000000000, -2.000000000000000000 ) ) ;
#285 = VERTEX_POINT ( 'NONE', #268 ) ;
#286 = LINE ( 'NONE', #358, #111 ) ;
#287 = CIRCLE ( 'NONE', #262, 13.00000000000000200 ) ;
#288 = CARTESIAN_POINT ( 'NONE',  ( 0.0000000000000000000, 7.000000000000000000, 0.0000000000000000000 ) ) ;
#289 = ORIENTED_EDGE ( 'NONE', *, *, #136, .F. ) ;
#290 = ADVANCED_FACE ( 'NONE', ( #1 ), #298, .T. ) ;
#291 = CARTESIAN_POINT ( 'NONE',  ( 0.0000000000000000000, 0.0000000000000000000, 2.000000000000000000 ) ) ;
#292 = SURFACE_STYLE_USAGE ( .BOTH. , #67 ) ;
#293 = CARTESIAN_POINT ( 'NONE',  ( 0.0000000000000000000, -8.500000000000000000, 0.0000000000000000000 ) ) ;
#294 = CIRCLE ( 'NONE', #267, 13.00000000000000200 ) ;
#295 = ORIENTED_EDGE ( 'NONE', *, *, #339, .F. ) ;
#296 = PRODUCT_DEFINITION ( 'UNKNOWN', '', #178, #249 ) ;
#297 = LINE ( 'NONE', #43, #87 ) ;
#298 = PLANE ( 'NONE',  #330 ) ;
#299 = EDGE_CURVE ( 'NONE', #277, #145, #58, .T. ) ;
#300 = CARTESIAN_POINT ( 'NONE',  ( 0.0000000000000000000, -8.000000000000001800, 0.0000000000000000000 ) ) ;
#301 = CARTESIAN_POINT ( 'NONE',  ( 1.836970198721031400E-016, -8.500000000000000000, -1.500000000000001300 ) ) ;
#302 = FACE_OUTER_BOUND ( 'NONE', #250, .T. ) ;
#303 = AXIS2_PLACEMENT_3D ( 'NONE', #203, #272, #21 ) ;
#304 = CARTESIAN_POINT ( 'NONE',  ( 0.0000000000000000000, 7.000000000000000000, 0.0000000000000000000 ) ) ;
#305 = CARTESIAN_POINT ( 'NONE',  ( 0.0000000000000000000, 0.0000000000000000000, 0.0000000000000000000 ) ) ;
#306 = PRODUCT_DEFINITION_CONTEXT ( 'detailed design', #174, 'design' ) ;
#307 = ORIENTED_EDGE ( 'NONE', *, *, #299, .T. ) ;
#308 = APPLICATION_CONTEXT ( 'automotive_design' ) ;
#309 = EDGE_CURVE ( 'NONE', #160, #26, #62, .T. ) ;
#310 = AXIS2_PLACEMENT_3D ( 'NONE', #164, #388, #202 ) ;
#311 = DIRECTION ( 'NONE',  ( 0.0000000000000000000, 0.0000000000000000000, 1.000000000000000000 ) ) ;
#312 = ORIENTED_EDGE ( 'NONE', *, *, #309, .F. ) ;
#313 = DIRECTION ( 'NONE',  ( 0.0000000000000000000, 0.7071067811865474600, 0.7071067811865474600 ) ) ;
#314 = PRODUCT_DEFINITION_FORMATION_WITH_SPECIFIED_SOURCE ( 'ANY', '', #120, .NOT_KNOWN. ) ;
#315 = SURFACE_STYLE_FILL_AREA ( #335 ) ;
#316 = CARTESIAN_POINT ( 'NONE',  ( 0.0000000000000000000, 7.000000000000000000, -13.00000000000000200 ) ) ;
#317 = LINE ( 'NONE', #138, #96 ) ;
#318 = EDGE_CURVE ( 'NONE', #55, #275, #286, .T. ) ;
#319 =( NAMED_UNIT ( * ) PLANE_ANGLE_UNIT ( ) SI_UNIT ( $, .RADIAN. ) );
#320 = FACE_OUTER_BOUND ( 'NONE', #376, .T. ) ;
#321 = DIRECTION ( 'NONE',  ( 0.0000000000000000000, 0.0000000000000000000, 1.000000000000000000 ) ) ;
#322 = STYLED_ITEM ( 'NONE', ( #231 ), #196 ) ;
#323 = ADVANCED_FACE ( 'NONE', ( #280 ), #19, .T. ) ;
#324 = FACE_OUTER_BOUND ( 'NONE', #22, .T. ) ;
#325 =( NAMED_UNIT ( * ) PLANE_ANGLE_UNIT ( ) SI_UNIT ( $, .RADIAN. ) );
#326 = ORIENTED_EDGE ( 'NONE', *, *, #56, .F. ) ;
#327 = DIRECTION ( 'NONE',  ( -0.0000000000000000000, -1.000000000000000000, -0.0000000000000000000 ) ) ;
#328 = EDGE_CURVE ( 'NONE', #130, #145, #233, .T. ) ;
#329 = EDGE_LOOP ( 'NONE', ( #229, #181, #6, #367 ) ) ;
#330 = AXIS2_PLACEMENT_3D ( 'NONE', #135, #387, #201 ) ;
#331 = CARTESIAN_POINT ( 'NONE',  ( 0.0000000000000000000, 5.000000000000000000, -13.00000000000000200 ) ) ;
#332 = DIRECTION ( 'NONE',  ( 0.0000000000000000000, 0.0000000000000000000, -1.000000000000000000 ) ) ;
#333 = DIRECTION ( 'NONE',  ( 0.0000000000000000000, 0.0000000000000000000, 1.000000000000000000 ) ) ;
#334 = ORIENTED_EDGE ( 'NONE', *, *, #128, .F. ) ;
#335 = FILL_AREA_STYLE ('',( #105 ) ) ;
#336 = APPLICATION_CONTEXT ( 'automotive_design' ) ;
#337 = CYLINDRICAL_SURFACE ( 'NONE', #244, 2.000000000000000000 ) ;
#338 = SURFACE_STYLE_FILL_AREA ( #223 ) ;
#339 = EDGE_CURVE ( 'NONE', #130, #140, #112, .T. ) ;
#340 = ORIENTED_EDGE ( 'NONE', *, *, #171, .F. ) ;
#341 = UNCERTAINTY_MEASURE_WITH_UNIT (LENGTH_MEASURE( 1.000000000000000100E-005 ), #94, 'distance_accuracy_value', 'NONE');
#342 = DIRECTION ( 'NONE',  ( 0.0000000000000000000, 0.0000000000000000000, -1.000000000000000000 ) ) ;
#343 = EDGE_CURVE ( 'NONE', #14, #55, #240, .T. ) ;
#344 = DIRECTION ( 'NONE',  ( 0.0000000000000000000, 1.000000000000000000, 0.0000000000000000000 ) ) ;
#345 = AXIS2_PLACEMENT_3D ( 'NONE', #300, #100, #332 ) ;
#346 = VECTOR ( 'NONE', #370, 1000.000000000000000 ) ;
#347 = DIRECTION ( 'NONE',  ( 0.0000000000000000000, 0.0000000000000000000, -1.000000000000000000 ) ) ;
#348 = CARTESIAN_POINT ( 'NONE',  ( 0.0000000000000000000, -8.500000000000000000, 1.500000000000001300 ) ) ;
#349 = DIRECTION ( 'NONE',  ( 0.0000000000000000000, 0.0000000000000000000, -1.000000000000000000 ) ) ;
#350 = ORIENTED_EDGE ( 'NONE', *, *, #328, .T. ) ;
#351 = ORIENTED_EDGE ( 'NONE', *, *, #136, .T. ) ;
#352 = DIRECTION ( 'NONE',  ( -0.0000000000000000000, -1.000000000000000000, -0.0000000000000000000 ) ) ;
#353 = PRODUCT_DEFINITION_SHAPE ( 'NONE', 'NONE',  #296 ) ;
#354 = FILL_AREA_STYLE ('',( #380 ) ) ;
#355 = PLANE ( 'NONE',  #197 ) ;
#356 = VECTOR ( 'NONE', #179, 1000.000000000000000 ) ;
#357 = EDGE_CURVE ( 'NONE', #140, #130, #373, .T. ) ;
#358 = CARTESIAN_POINT ( 'NONE',  ( 0.0000000000000000000, 7.000000000000000000, -13.00000000000000200 ) ) ;
#359 = CYLINDRICAL_SURFACE ( 'NONE', #27, 2.000000000000000000 ) ;
#360 = VERTEX_POINT ( 'NONE', #74 ) ;
#361 = AXIS2_PLACEMENT_3D ( 'NONE', #234, #270, #73 ) ;
#362 = CARTESIAN_POINT ( 'NONE',  ( 0.0000000000000000000, 0.0000000000000000000, 0.0000000000000000000 ) ) ;
#363 = SURFACE_STYLE_USAGE ( .BOTH. , #139 ) ;
#364 = PRODUCT_CONTEXT ( 'NONE', #336, 'mechanical' ) ;
#365 = EDGE_LOOP ( 'NONE', ( #83, #381 ) ) ;
#366 = SURFACE_STYLE_FILL_AREA ( #354 ) ;
#367 = ORIENTED_EDGE ( 'NONE', *, *, #265, .F. ) ;
#368 = CARTESIAN_POINT ( 'NONE',  ( 0.0000000000000000000, -8.500000000000000000, 1.500000000000001300 ) ) ;
#369 = ORIENTED_EDGE ( 'NONE', *, *, #371, .F. ) ;
#370 = DIRECTION ( 'NONE',  ( -0.0000000000000000000, 1.000000000000000000, -0.0000000000000000000 ) ) ;
#371 = EDGE_CURVE ( 'NONE', #360, #285, #317, .T. ) ;
#372 = CARTESIAN_POINT ( 'NONE',  ( 1.592040838891559300E-015, 7.000000000000000000, 13.00000000000000200 ) ) ;
#373 = CIRCLE ( 'NONE', #187, 1.500000000000001300 ) ;
#374 = CIRCLE ( 'NONE', #31, 2.000000000000000000 ) ;
#375 = CARTESIAN_POINT ( 'NONE',  ( 1.592040838891559300E-015, 5.000000000000000000, 13.00000000000000200 ) ) ;
#376 = EDGE_LOOP ( 'NONE', ( #369, #334, #123, #281 ) ) ;
#377 = ADVANCED_FACE ( 'NONE', ( #252 ), #172, .T. ) ;
#378 = CLOSED_SHELL ( 'NONE', ( #38, #227, #188, #13, #259, #64, #93, #156, #323, #125, #290, #377 ) ) ;
#379 = DIRECTION ( 'NONE',  ( 0.0000000000000000000, 1.000000000000000000, 0.0000000000000000000 ) ) ;
#380 = FILL_AREA_STYLE_COLOUR ( '', #239 ) ;
#381 = ORIENTED_EDGE ( 'NONE', *, *, #2, .T. ) ;
#382 = UNCERTAINTY_MEASURE_WITH_UNIT (LENGTH_MEASURE( 1.000000000000000100E-005 ), #10, 'distance_accuracy_value', 'NONE');
#383 = SURFACE_STYLE_USAGE ( .BOTH. , #159 ) ;
#384 = UNCERTAINTY_MEASURE_WITH_UNIT (LENGTH_MEASURE( 1.000000000000000100E-005 ), #23, 'distance_accuracy_value', 'NONE');
#385 = EDGE_CURVE ( 'NONE', #285, #51, #264, .T. ) ;
#386 = DIRECTION ( 'NONE',  ( 0.0000000000000000000, 1.000000000000000000, 0.0000000000000000000 ) ) ;
#387 = DIRECTION ( 'NONE',  ( 0.0000000000000000000, -1.000000000000000000, 0.0000000000000000000 ) ) ;
#388 = DIRECTION ( 'NONE',  ( -0.0000000000000000000, -1.000000000000000000, -0.0000000000000000000 ) ) ;
#389 = DIRECTION ( 'NONE',  ( 0.0000000000000000000, -1.000000000000000000, 0.0000000000000000000 ) ) ;
#390 = DIRECTION ( 'NONE',  ( 0.0000000000000000000, 1.000000000000000000, 0.0000000000000000000 ) ) ;
#391 = ORIENTED_EDGE ( 'NONE', *, *, #171, .T. ) ;
#392 =( NAMED_UNIT ( * ) PLANE_ANGLE_UNIT ( ) SI_UNIT ( $, .RADIAN. ) );
#393 = APPLICATION_PROTOCOL_DEFINITION ( 'draft international standard', 'automotive_design', 1998, #174 ) ;
#394 = PRODUCT_RELATED_PRODUCT_CATEGORY ( 'part', '', ( #184 ) ) ;
#395 = COLOUR_RGB ( '',0.7921568627450980000, 0.8196078431372548800, 0.9333333333333333500 ) ;
ENDSEC;
END-ISO-10303-21;
