ISO-10303-21;
HEADER;
FILE_DESCRIPTION (( 'STEP AP203' ),
    '1' );
FILE_NAME ('04104500d.STEP',
    '2020-08-12T14:47:34',
    ( '' ),
    ( '' ),
    'SwSTEP 2.0',
    'SolidWorks 2018',
    '' );
FILE_SCHEMA (( 'CONFIG_CONTROL_DESIGN' ));
ENDSEC;

DATA;
#1 = AXIS2_PLACEMENT_3D ( 'NONE', #169, #327, #354 ) ;
#2 = EDGE_CURVE ( 'NONE', #378, #111, #405, .T. ) ;
#3 = UNCERTAINTY_MEASURE_WITH_UNIT (LENGTH_MEASURE( 1.000000000000000082E-05 ), #227, 'distance_accuracy_value', 'NONE');
#4 = PERSON_AND_ORGANIZATION_ROLE ( 'creator' ) ;
#5 = ORIENTED_EDGE ( 'NONE', *, *, #311, .T. ) ;
#6 =( NAMED_UNIT ( * ) PLANE_ANGLE_UNIT ( ) SI_UNIT ( $, .RADIAN. ) );
#7 = VECTOR ( 'NONE', #202, 1000.000000000000000 ) ;
#8 = CIRCLE ( 'NONE', #181, 12.65000000000000036 ) ;
#9 = ADVANCED_FACE ( 'NONE', ( #155, #249 ), #22, .F. ) ;
#10 = DIRECTION ( 'NONE',  ( 0.0000000000000000000, 0.0000000000000000000, 1.000000000000000000 ) ) ;
#11 = DIRECTION ( 'NONE',  ( 0.0000000000000000000, 0.0000000000000000000, 1.000000000000000000 ) ) ;
#12 = DIRECTION ( 'NONE',  ( -1.000000000000000000, 0.0000000000000000000, 0.0000000000000000000 ) ) ;
#13 = DIRECTION ( 'NONE',  ( 0.0000000000000000000, 0.0000000000000000000, -1.000000000000000000 ) ) ;
#14 = PLANE ( 'NONE',  #283 ) ;
#15 = DIRECTION ( 'NONE',  ( 1.000000000000000000, 0.0000000000000000000, -0.0000000000000000000 ) ) ;
#16 = DIRECTION ( 'NONE',  ( 1.000000000000000000, 0.0000000000000000000, 0.0000000000000000000 ) ) ;
#17 = VERTEX_POINT ( 'NONE', #98 ) ;
#18 = CARTESIAN_POINT ( 'NONE',  ( 0.0000000000000000000, 0.0000000000000000000, 0.0000000000000000000 ) ) ;
#19 = DIRECTION ( 'NONE',  ( 1.000000000000000000, 0.0000000000000000000, 0.0000000000000000000 ) ) ;
#20 = SHAPE_DEFINITION_REPRESENTATION ( #212, #88 ) ;
#21 = FACE_OUTER_BOUND ( 'NONE', #203, .T. ) ;
#22 = PLANE ( 'NONE',  #33 ) ;
#23 = AXIS2_PLACEMENT_3D ( 'NONE', #165, #265, #316 ) ;
#24 = CARTESIAN_POINT ( 'NONE',  ( 0.0000000000000000000, 0.0000000000000000000, 2.299999999999999822 ) ) ;
#25 = COORDINATED_UNIVERSAL_TIME_OFFSET ( 1, 0, .AHEAD. ) ;
#26 = AXIS2_PLACEMENT_3D ( 'NONE', #388, #39, #136 ) ;
#27 = ORIENTED_EDGE ( 'NONE', *, *, #286, .F. ) ;
#28 = LOCAL_TIME ( 16, 47, 34.00000000000000000, #274 ) ;
#29 = EDGE_CURVE ( 'NONE', #63, #251, #193, .T. ) ;
#30 = DESIGN_CONTEXT ( 'detailed design', #62, 'design' ) ;
#31 = LOCAL_TIME ( 16, 47, 34.00000000000000000, #25 ) ;
#32 = ORIENTED_EDGE ( 'NONE', *, *, #171, .F. ) ;
#33 = AXIS2_PLACEMENT_3D ( 'NONE', #37, #163, #151 ) ;
#34 = APPROVAL_STATUS ( 'not_yet_approved' ) ;
#35 = CYLINDRICAL_SURFACE ( 'NONE', #1, 12.65000000000000036 ) ;
#36 = ADVANCED_FACE ( 'NONE', ( #180 ), #166, .T. ) ;
#37 = CARTESIAN_POINT ( 'NONE',  ( 0.0000000000000000000, 0.0000000000000000000, 0.0000000000000000000 ) ) ;
#38 = ORIENTED_EDGE ( 'NONE', *, *, #263, .F. ) ;
#39 = DIRECTION ( 'NONE',  ( -0.0000000000000000000, -0.0000000000000000000, 1.000000000000000000 ) ) ;
#40 = DIRECTION ( 'NONE',  ( 0.0000000000000000000, 0.0000000000000000000, -1.000000000000000000 ) ) ;
#41 = CC_DESIGN_PERSON_AND_ORGANIZATION_ASSIGNMENT ( #80, #289, ( #402 ) ) ;
#42 = DIRECTION ( 'NONE',  ( -1.000000000000000000, 0.0000000000000000000, 0.0000000000000000000 ) ) ;
#43 = CARTESIAN_POINT ( 'NONE',  ( 0.0000000000000000000, 0.0000000000000000000, -1.599999999999999867 ) ) ;
#44 = DATE_AND_TIME ( #297, #110 ) ;
#45 = ORIENTED_EDGE ( 'NONE', *, *, #263, .T. ) ;
#46 = CARTESIAN_POINT ( 'NONE',  ( 0.0000000000000000000, 0.0000000000000000000, 2.299999999999999822 ) ) ;
#47 = AXIS2_PLACEMENT_3D ( 'NONE', #18, #360, #16 ) ;
#48 = CYLINDRICAL_SURFACE ( 'NONE', #389, 11.00000000000000000 ) ;
#49 = DIRECTION ( 'NONE',  ( -1.000000000000000000, 0.0000000000000000000, 0.0000000000000000000 ) ) ;
#50 = CIRCLE ( 'NONE', #329, 12.65000000000000036 ) ;
#51 = MANIFOLD_SOLID_BREP ( 'Schnitt-Linear austragen1', #400 ) ;
#52 = CARTESIAN_POINT ( 'NONE',  ( 0.0000000000000000000, 0.0000000000000000000, -1.800000000000000044 ) ) ;
#53 = ORIENTED_EDGE ( 'NONE', *, *, #2, .F. ) ;
#54 = APPROVAL_PERSON_ORGANIZATION ( #376, #82, #225 ) ;
#55 = CYLINDRICAL_SURFACE ( 'NONE', #306, 11.00000000000000000 ) ;
#56 = ORIENTED_EDGE ( 'NONE', *, *, #366, .T. ) ;
#57 = FACE_OUTER_BOUND ( 'NONE', #107, .T. ) ;
#58 = PRODUCT_DEFINITION ( 'UNKNOWN', '', #170, #30 ) ;
#59 = EDGE_LOOP ( 'NONE', ( #86, #142 ) ) ;
#60 = ORIENTED_EDGE ( 'NONE', *, *, #382, .T. ) ;
#61 = APPROVAL_STATUS ( 'not_yet_approved' ) ;
#62 = APPLICATION_CONTEXT ( 'configuration controlled 3d designs of mechanical parts and assemblies' ) ;
#63 = VERTEX_POINT ( 'NONE', #250 ) ;
#64 = CARTESIAN_POINT ( 'NONE',  ( 16.00000000000000000, 1.959434878635765131E-15, 2.299999999999999822 ) ) ;
#65 = ADVANCED_FACE ( 'NONE', ( #413 ), #337, .T. ) ;
#66 = DIRECTION ( 'NONE',  ( -0.0000000000000000000, -0.0000000000000000000, -1.000000000000000000 ) ) ;
#67 = CARTESIAN_POINT ( 'NONE',  ( 0.0000000000000000000, 0.0000000000000000000, -1.599999999999999867 ) ) ;
#68 = FACE_OUTER_BOUND ( 'NONE', #338, .T. ) ;
#69 = CIRCLE ( 'NONE', #397, 11.00000000000000000 ) ;
#70 = CARTESIAN_POINT ( 'NONE',  ( 12.40000000000000036, 0.0000000000000000000, 0.0000000000000000000 ) ) ;
#71 = CARTESIAN_POINT ( 'NONE',  ( 11.00000000000000000, 1.347111479062088405E-15, -1.800000000000000044 ) ) ;
#72 = CARTESIAN_POINT ( 'NONE',  ( -16.00000000000000000, 0.0000000000000000000, 0.0000000000000000000 ) ) ;
#73 = VERTEX_POINT ( 'NONE', #116 ) ;
#74 = DIRECTION ( 'NONE',  ( 0.0000000000000000000, 0.0000000000000000000, 1.000000000000000000 ) ) ;
#75 = CARTESIAN_POINT ( 'NONE',  ( 16.00000000000000000, 1.959434878635765131E-15, 0.0000000000000000000 ) ) ;
#76 = ORIENTED_EDGE ( 'NONE', *, *, #186, .F. ) ;
#77 = DIRECTION ( 'NONE',  ( 1.000000000000000000, 0.0000000000000000000, 0.0000000000000000000 ) ) ;
#78 = EDGE_LOOP ( 'NONE', ( #92, #32 ) ) ;
#79 = CARTESIAN_POINT ( 'NONE',  ( 0.0000000000000000000, 0.0000000000000000000, 5.200000000000000178 ) ) ;
#80 = PERSON_AND_ORGANIZATION ( #112, #412 ) ;
#81 = CIRCLE ( 'NONE', #174, 16.00000000000000000 ) ;
#82 = APPROVAL ( #34, 'UNSPECIFIED' ) ;
#83 = DIRECTION ( 'NONE',  ( -0.0000000000000000000, -0.0000000000000000000, -1.000000000000000000 ) ) ;
#84 = EDGE_CURVE ( 'NONE', #147, #152, #114, .T. ) ;
#85 = EDGE_CURVE ( 'NONE', #120, #87, #81, .T. ) ;
#86 = ORIENTED_EDGE ( 'NONE', *, *, #102, .F. ) ;
#87 = VERTEX_POINT ( 'NONE', #275 ) ;
#88 = ADVANCED_BREP_SHAPE_REPRESENTATION ( '04104500d', ( #51, #23 ), #326 ) ;
#89 = FACE_OUTER_BOUND ( 'NONE', #158, .T. ) ;
#90 = ORIENTED_EDGE ( 'NONE', *, *, #258, .T. ) ;
#91 = PERSON_AND_ORGANIZATION_ROLE ( 'classification_officer' ) ;
#92 = ORIENTED_EDGE ( 'NONE', *, *, #311, .F. ) ;
#93 = PERSON_AND_ORGANIZATION ( #112, #412 ) ;
#94 = MECHANICAL_CONTEXT ( 'NONE', #131, 'mechanical' ) ;
#95 = FACE_OUTER_BOUND ( 'NONE', #123, .T. ) ;
#96 = CIRCLE ( 'NONE', #346, 12.65000000000000036 ) ;
#97 = CARTESIAN_POINT ( 'NONE',  ( -16.00000000000000000, 0.0000000000000000000, 2.299999999999999822 ) ) ;
#98 = CARTESIAN_POINT ( 'NONE',  ( 11.00000000000000000, 1.347111479062088405E-15, -1.599999999999999867 ) ) ;
#99 = ADVANCED_FACE ( 'NONE', ( #255, #351 ), #192, .T. ) ;
#100 = DIRECTION ( 'NONE',  ( 0.0000000000000000000, 0.0000000000000000000, 1.000000000000000000 ) ) ;
#101 = CARTESIAN_POINT ( 'NONE',  ( -12.40000000000000036, 1.518562030942717967E-15, 0.0000000000000000000 ) ) ;
#102 = EDGE_CURVE ( 'NONE', #187, #111, #96, .T. ) ;
#103 = CARTESIAN_POINT ( 'NONE',  ( 0.0000000000000000000, 0.0000000000000000000, -1.800000000000000044 ) ) ;
#104 = CC_DESIGN_APPROVAL ( #82, ( #58 ) ) ;
#105 = AXIS2_PLACEMENT_3D ( 'NONE', #79, #301, #115 ) ;
#106 = EDGE_CURVE ( 'NONE', #73, #17, #362, .T. ) ;
#107 = EDGE_LOOP ( 'NONE', ( #224, #56, #291, #76 ) ) ;
#108 = DIRECTION ( 'NONE',  ( -1.000000000000000000, 0.0000000000000000000, 0.0000000000000000000 ) ) ;
#109 = DIRECTION ( 'NONE',  ( -0.0000000000000000000, -0.0000000000000000000, -1.000000000000000000 ) ) ;
#110 = LOCAL_TIME ( 16, 47, 34.00000000000000000, #368 ) ;
#111 = VERTEX_POINT ( 'NONE', #264 ) ;
#112 = PERSON ( 'UNSPECIFIED', 'UNSPECIFIED', 'UNSPECIFIED', ('UNSPECIFIED'), ('UNSPECIFIED'), ('UNSPECIFIED') ) ;
#113 = LINE ( 'NONE', #141, #309 ) ;
#114 = CIRCLE ( 'NONE', #206, 12.40000000000000036 ) ;
#115 = DIRECTION ( 'NONE',  ( 1.000000000000000000, 0.0000000000000000000, 0.0000000000000000000 ) ) ;
#116 = CARTESIAN_POINT ( 'NONE',  ( -11.00000000000000000, 0.0000000000000000000, -1.599999999999999867 ) ) ;
#117 = CARTESIAN_POINT ( 'NONE',  ( 0.0000000000000000000, 0.0000000000000000000, 5.200000000000000178 ) ) ;
#118 = DIRECTION ( 'NONE',  ( -1.000000000000000000, 0.0000000000000000000, 0.0000000000000000000 ) ) ;
#119 = PERSON_AND_ORGANIZATION ( #112, #412 ) ;
#120 = VERTEX_POINT ( 'NONE', #64 ) ;
#121 = LINE ( 'NONE', #97, #205 ) ;
#122 = CYLINDRICAL_SURFACE ( 'NONE', #304, 16.00000000000000000 ) ;
#123 = EDGE_LOOP ( 'NONE', ( #410, #216 ) ) ;
#124 = CC_DESIGN_PERSON_AND_ORGANIZATION_ASSIGNMENT ( #119, #4, ( #58 ) ) ;
#125 = EDGE_CURVE ( 'NONE', #111, #187, #8, .T. ) ;
#126 = LOCAL_TIME ( 16, 47, 34.00000000000000000, #188 ) ;
#127 = AXIS2_PLACEMENT_3D ( 'NONE', #24, #406, #214 ) ;
#128 = VERTEX_POINT ( 'NONE', #267 ) ;
#129 = PERSON_AND_ORGANIZATION_ROLE ( 'design_supplier' ) ;
#130 = CIRCLE ( 'NONE', #331, 12.40000000000000036 ) ;
#131 = APPLICATION_CONTEXT ( 'configuration controlled 3d designs of mechanical parts and assemblies' ) ;
#132 = CARTESIAN_POINT ( 'NONE',  ( 0.0000000000000000000, 0.0000000000000000000, 2.299999999999999822 ) ) ;
#133 = DIRECTION ( 'NONE',  ( -0.0000000000000000000, -0.0000000000000000000, -1.000000000000000000 ) ) ;
#134 = ORIENTED_EDGE ( 'NONE', *, *, #84, .F. ) ;
#135 = ADVANCED_FACE ( 'NONE', ( #57 ), #266, .T. ) ;
#136 = DIRECTION ( 'NONE',  ( 1.000000000000000000, 0.0000000000000000000, 0.0000000000000000000 ) ) ;
#137 = LOCAL_TIME ( 16, 47, 34.00000000000000000, #220 ) ;
#138 = DIRECTION ( 'NONE',  ( -1.000000000000000000, 0.0000000000000000000, -0.0000000000000000000 ) ) ;
#139 = CIRCLE ( 'NONE', #279, 12.40000000000000036 ) ;
#140 = CARTESIAN_POINT ( 'NONE',  ( 0.0000000000000000000, 0.0000000000000000000, -1.800000000000000044 ) ) ;
#141 = CARTESIAN_POINT ( 'NONE',  ( -12.40000000000000036, 1.518562030942717967E-15, -1.800000000000000044 ) ) ;
#142 = ORIENTED_EDGE ( 'NONE', *, *, #125, .F. ) ;
#143 = AXIS2_PLACEMENT_3D ( 'NONE', #67, #292, #322 ) ;
#144 = FACE_OUTER_BOUND ( 'NONE', #307, .T. ) ;
#145 = CARTESIAN_POINT ( 'NONE',  ( 0.0000000000000000000, 0.0000000000000000000, 5.200000000000000178 ) ) ;
#146 = ORIENTED_EDGE ( 'NONE', *, *, #363, .F. ) ;
#147 = VERTEX_POINT ( 'NONE', #101 ) ;
#148 = CC_DESIGN_DATE_AND_TIME_ASSIGNMENT ( #44, #190, ( #58 ) ) ;
#149 = DIRECTION ( 'NONE',  ( 0.0000000000000000000, 0.0000000000000000000, -1.000000000000000000 ) ) ;
#150 = EDGE_CURVE ( 'NONE', #17, #73, #391, .T. ) ;
#151 = DIRECTION ( 'NONE',  ( 1.000000000000000000, 0.0000000000000000000, -0.0000000000000000000 ) ) ;
#152 = VERTEX_POINT ( 'NONE', #70 ) ;
#153 = ORIENTED_EDGE ( 'NONE', *, *, #411, .T. ) ;
#154 = PERSON_AND_ORGANIZATION ( #112, #412 ) ;
#155 = FACE_BOUND ( 'NONE', #347, .T. ) ;
#156 = AXIS2_PLACEMENT_3D ( 'NONE', #46, #272, #77 ) ;
#157 = ORIENTED_EDGE ( 'NONE', *, *, #241, .F. ) ;
#158 = EDGE_LOOP ( 'NONE', ( #302, #273, #210, #261 ) ) ;
#159 = APPROVAL_ROLE ( '' ) ;
#160 = ORIENTED_EDGE ( 'NONE', *, *, #29, .T. ) ;
#161 = DIRECTION ( 'NONE',  ( 0.0000000000000000000, 0.0000000000000000000, -1.000000000000000000 ) ) ;
#162 = APPLICATION_PROTOCOL_DEFINITION ( 'international standard', 'config_control_design', 1994, #131 ) ;
#163 = DIRECTION ( 'NONE',  ( 0.0000000000000000000, 0.0000000000000000000, 1.000000000000000000 ) ) ;
#164 = ADVANCED_FACE ( 'NONE', ( #89 ), #122, .T. ) ;
#165 = CARTESIAN_POINT ( 'NONE',  ( 0.0000000000000000000, 0.0000000000000000000, 0.0000000000000000000 ) ) ;
#166 = CYLINDRICAL_SURFACE ( 'NONE', #127, 16.00000000000000000 ) ;
#167 = PLANE ( 'NONE',  #344 ) ;
#168 = VERTEX_POINT ( 'NONE', #71 ) ;
#169 = CARTESIAN_POINT ( 'NONE',  ( 0.0000000000000000000, 0.0000000000000000000, 5.200000000000000178 ) ) ;
#170 = PRODUCT_DEFINITION_FORMATION_WITH_SPECIFIED_SOURCE ( 'ANY', '', #402, .NOT_KNOWN. ) ;
#171 = EDGE_CURVE ( 'NONE', #168, #308, #69, .T. ) ;
#172 = CARTESIAN_POINT ( 'NONE',  ( 12.40000000000000036, 0.0000000000000000000, -1.800000000000000044 ) ) ;
#173 = EDGE_CURVE ( 'NONE', #372, #244, #184, .T. ) ;
#174 = AXIS2_PLACEMENT_3D ( 'NONE', #226, #74, #237 ) ;
#175 = ORIENTED_EDGE ( 'NONE', *, *, #2, .T. ) ;
#176 = CARTESIAN_POINT ( 'NONE',  ( 0.0000000000000000000, 0.0000000000000000000, 0.0000000000000000000 ) ) ;
#177 = EDGE_LOOP ( 'NONE', ( #27, #175, #398, #246 ) ) ;
#178 = DIRECTION ( 'NONE',  ( 1.000000000000000000, 0.0000000000000000000, 0.0000000000000000000 ) ) ;
#179 = LINE ( 'NONE', #294, #222 ) ;
#180 = FACE_OUTER_BOUND ( 'NONE', #218, .T. ) ;
#181 = AXIS2_PLACEMENT_3D ( 'NONE', #198, #11, #234 ) ;
#182 = ORIENTED_EDGE ( 'NONE', *, *, #375, .F. ) ;
#183 = CALENDAR_DATE ( 2020, 12, 8 ) ;
#184 = CIRCLE ( 'NONE', #47, 16.00000000000000000 ) ;
#185 = APPROVAL ( #380, 'UNSPECIFIED' ) ;
#186 = EDGE_CURVE ( 'NONE', #251, #152, #179, .T. ) ;
#187 = VERTEX_POINT ( 'NONE', #358 ) ;
#188 = COORDINATED_UNIVERSAL_TIME_OFFSET ( 1, 0, .AHEAD. ) ;
#189 = ORIENTED_EDGE ( 'NONE', *, *, #363, .T. ) ;
#190 = DATE_TIME_ROLE ( 'creation_date' ) ;
#191 = LINE ( 'NONE', #390, #342 ) ;
#192 = PLANE ( 'NONE',  #370 ) ;
#193 = CIRCLE ( 'NONE', #215, 12.40000000000000036 ) ;
#194 =( NAMED_UNIT ( * ) SI_UNIT ( $, .STERADIAN. ) SOLID_ANGLE_UNIT ( ) );
#195 = ADVANCED_FACE ( 'NONE', ( #235 ), #35, .T. ) ;
#196 = CARTESIAN_POINT ( 'NONE',  ( 12.65000000000000036, 1.549178200921401754E-15, 5.200000000000000178 ) ) ;
#197 = DIRECTION ( 'NONE',  ( 1.000000000000000000, 0.0000000000000000000, -0.0000000000000000000 ) ) ;
#198 = CARTESIAN_POINT ( 'NONE',  ( 0.0000000000000000000, 0.0000000000000000000, 2.299999999999999822 ) ) ;
#199 = CARTESIAN_POINT ( 'NONE',  ( 12.65000000000000036, 1.549178200921401754E-15, 5.200000000000000178 ) ) ;
#200 = DIRECTION ( 'NONE',  ( 0.0000000000000000000, 0.0000000000000000000, -1.000000000000000000 ) ) ;
#201 = CARTESIAN_POINT ( 'NONE',  ( 0.0000000000000000000, 0.0000000000000000000, -1.800000000000000044 ) ) ;
#202 = DIRECTION ( 'NONE',  ( -0.0000000000000000000, -0.0000000000000000000, -1.000000000000000000 ) ) ;
#203 = EDGE_LOOP ( 'NONE', ( #90, #314 ) ) ;
#204 = DIRECTION ( 'NONE',  ( -1.000000000000000000, 0.0000000000000000000, 0.0000000000000000000 ) ) ;
#205 = VECTOR ( 'NONE', #66, 1000.000000000000000 ) ;
#206 = AXIS2_PLACEMENT_3D ( 'NONE', #350, #161, #381 ) ;
#207 = CIRCLE ( 'NONE', #156, 16.00000000000000000 ) ;
#208 = DIRECTION ( 'NONE',  ( -0.0000000000000000000, -0.0000000000000000000, 1.000000000000000000 ) ) ;
#209 = CARTESIAN_POINT ( 'NONE',  ( 0.0000000000000000000, 0.0000000000000000000, -1.800000000000000044 ) ) ;
#210 = ORIENTED_EDGE ( 'NONE', *, *, #375, .T. ) ;
#211 = DIRECTION ( 'NONE',  ( 0.0000000000000000000, 0.0000000000000000000, -1.000000000000000000 ) ) ;
#212 = PRODUCT_DEFINITION_SHAPE ( 'NONE', 'NONE',  #58 ) ;
#213 = CC_DESIGN_APPROVAL ( #185, ( #170 ) ) ;
#214 = DIRECTION ( 'NONE',  ( -1.000000000000000000, 0.0000000000000000000, 0.0000000000000000000 ) ) ;
#215 = AXIS2_PLACEMENT_3D ( 'NONE', #367, #149, #305 ) ;
#216 = ORIENTED_EDGE ( 'NONE', *, *, #286, .T. ) ;
#217 = AXIS2_PLACEMENT_3D ( 'NONE', #140, #211, #108 ) ;
#218 = EDGE_LOOP ( 'NONE', ( #157, #252, #415, #228 ) ) ;
#219 = EDGE_LOOP ( 'NONE', ( #256, #182 ) ) ;
#220 = COORDINATED_UNIVERSAL_TIME_OFFSET ( 1, 0, .AHEAD. ) ;
#221 = AXIS2_PLACEMENT_3D ( 'NONE', #324, #100, #293 ) ;
#222 = VECTOR ( 'NONE', #271, 1000.000000000000000 ) ;
#223 = APPROVAL_PERSON_ORGANIZATION ( #401, #185, #159 ) ;
#224 = ORIENTED_EDGE ( 'NONE', *, *, #29, .F. ) ;
#225 = APPROVAL_ROLE ( '' ) ;
#226 = CARTESIAN_POINT ( 'NONE',  ( 0.0000000000000000000, 0.0000000000000000000, 2.299999999999999822 ) ) ;
#227 =( LENGTH_UNIT ( ) NAMED_UNIT ( * ) SI_UNIT ( .MILLI., .METRE. ) );
#228 = ORIENTED_EDGE ( 'NONE', *, *, #173, .T. ) ;
#229 = APPROVAL_DATE_TIME ( #247, #185 ) ;
#230 = DIRECTION ( 'NONE',  ( -1.000000000000000000, 0.0000000000000000000, 0.0000000000000000000 ) ) ;
#231 = CARTESIAN_POINT ( 'NONE',  ( 0.0000000000000000000, 0.0000000000000000000, 5.200000000000000178 ) ) ;
#232 = LINE ( 'NONE', #320, #321 ) ;
#233 = ADVANCED_FACE ( 'NONE', ( #303, #21 ), #356, .T. ) ;
#234 = DIRECTION ( 'NONE',  ( 1.000000000000000000, 0.0000000000000000000, 0.0000000000000000000 ) ) ;
#235 = FACE_OUTER_BOUND ( 'NONE', #177, .T. ) ;
#236 = CARTESIAN_POINT ( 'NONE',  ( 0.0000000000000000000, 0.0000000000000000000, 2.299999999999999822 ) ) ;
#237 = DIRECTION ( 'NONE',  ( 1.000000000000000000, 0.0000000000000000000, 0.0000000000000000000 ) ) ;
#238 = CC_DESIGN_PERSON_AND_ORGANIZATION_ASSIGNMENT ( #318, #349, ( #170 ) ) ;
#239 = CARTESIAN_POINT ( 'NONE',  ( -11.00000000000000000, 0.0000000000000000000, -1.599999999999999867 ) ) ;
#240 = DIRECTION ( 'NONE',  ( 0.0000000000000000000, 0.0000000000000000000, 1.000000000000000000 ) ) ;
#241 = EDGE_CURVE ( 'NONE', #120, #244, #371, .T. ) ;
#242 = CARTESIAN_POINT ( 'NONE',  ( 0.0000000000000000000, 0.0000000000000000000, -1.599999999999999867 ) ) ;
#243 = AXIS2_PLACEMENT_3D ( 'NONE', #395, #240, #15 ) ;
#244 = VERTEX_POINT ( 'NONE', #75 ) ;
#245 = DIRECTION ( 'NONE',  ( -1.000000000000000000, 0.0000000000000000000, 0.0000000000000000000 ) ) ;
#246 = ORIENTED_EDGE ( 'NONE', *, *, #382, .F. ) ;
#247 = DATE_AND_TIME ( #277, #31 ) ;
#248 = FACE_OUTER_BOUND ( 'NONE', #340, .T. ) ;
#249 = FACE_OUTER_BOUND ( 'NONE', #219, .T. ) ;
#250 = CARTESIAN_POINT ( 'NONE',  ( -12.40000000000000036, 1.518562030942717967E-15, -1.800000000000000044 ) ) ;
#251 = VERTEX_POINT ( 'NONE', #172 ) ;
#252 = ORIENTED_EDGE ( 'NONE', *, *, #258, .F. ) ;
#253 = AXIS2_PLACEMENT_3D ( 'NONE', #117, #83, #118 ) ;
#254 = LINE ( 'NONE', #239, #7 ) ;
#255 = FACE_BOUND ( 'NONE', #78, .T. ) ;
#256 = ORIENTED_EDGE ( 'NONE', *, *, #173, .F. ) ;
#257 = CC_DESIGN_PERSON_AND_ORGANIZATION_ASSIGNMENT ( #386, #129, ( #170 ) ) ;
#258 = EDGE_CURVE ( 'NONE', #87, #120, #207, .T. ) ;
#259 = ORIENTED_EDGE ( 'NONE', *, *, #411, .F. ) ;
#260 = APPROVAL_ROLE ( '' ) ;
#261 = ORIENTED_EDGE ( 'NONE', *, *, #414, .F. ) ;
#262 = APPLICATION_PROTOCOL_DEFINITION ( 'international standard', 'config_control_design', 1994, #62 ) ;
#263 = EDGE_CURVE ( 'NONE', #152, #147, #139, .T. ) ;
#264 = CARTESIAN_POINT ( 'NONE',  ( 12.65000000000000036, 1.549178200921401754E-15, 2.299999999999999822 ) ) ;
#265 = DIRECTION ( 'NONE',  ( 0.0000000000000000000, 0.0000000000000000000, 1.000000000000000000 ) ) ;
#266 = CYLINDRICAL_SURFACE ( 'NONE', #26, 12.40000000000000036 ) ;
#267 = CARTESIAN_POINT ( 'NONE',  ( -12.65000000000000036, 0.0000000000000000000, 5.200000000000000178 ) ) ;
#268 = ADVANCED_FACE ( 'NONE', ( #379 ), #55, .F. ) ;
#269 = DIRECTION ( 'NONE',  ( -0.0000000000000000000, -0.0000000000000000000, -1.000000000000000000 ) ) ;
#270 = AXIS2_PLACEMENT_3D ( 'NONE', #52, #208, #19 ) ;
#271 = DIRECTION ( 'NONE',  ( -0.0000000000000000000, -0.0000000000000000000, 1.000000000000000000 ) ) ;
#272 = DIRECTION ( 'NONE',  ( 0.0000000000000000000, 0.0000000000000000000, 1.000000000000000000 ) ) ;
#273 = ORIENTED_EDGE ( 'NONE', *, *, #241, .T. ) ;
#274 = COORDINATED_UNIVERSAL_TIME_OFFSET ( 1, 0, .AHEAD. ) ;
#275 = CARTESIAN_POINT ( 'NONE',  ( -16.00000000000000000, 0.0000000000000000000, 2.299999999999999822 ) ) ;
#276 = SECURITY_CLASSIFICATION ( '', '', #315 ) ;
#277 = CALENDAR_DATE ( 2020, 12, 8 ) ;
#278 = ORIENTED_EDGE ( 'NONE', *, *, #186, .T. ) ;
#279 = AXIS2_PLACEMENT_3D ( 'NONE', #176, #399, #245 ) ;
#280 = CYLINDRICAL_SURFACE ( 'NONE', #270, 12.40000000000000036 ) ;
#281 = EDGE_CURVE ( 'NONE', #251, #63, #130, .T. ) ;
#282 = ORIENTED_EDGE ( 'NONE', *, *, #295, .F. ) ;
#283 = AXIS2_PLACEMENT_3D ( 'NONE', #242, #355, #396 ) ;
#284 = APPROVAL_DATE_TIME ( #312, #82 ) ;
#285 = EDGE_LOOP ( 'NONE', ( #409, #153, #328, #146 ) ) ;
#286 = EDGE_CURVE ( 'NONE', #378, #128, #50, .T. ) ;
#287 = DATE_TIME_ROLE ( 'classification_date' ) ;
#288 = CIRCLE ( 'NONE', #217, 11.00000000000000000 ) ;
#289 = PERSON_AND_ORGANIZATION_ROLE ( 'design_owner' ) ;
#290 = ADVANCED_FACE ( 'NONE', ( #144 ), #48, .F. ) ;
#291 = ORIENTED_EDGE ( 'NONE', *, *, #84, .T. ) ;
#292 = DIRECTION ( 'NONE',  ( 0.0000000000000000000, 0.0000000000000000000, -1.000000000000000000 ) ) ;
#293 = DIRECTION ( 'NONE',  ( 1.000000000000000000, 0.0000000000000000000, 0.0000000000000000000 ) ) ;
#294 = CARTESIAN_POINT ( 'NONE',  ( 12.40000000000000036, 0.0000000000000000000, -1.800000000000000044 ) ) ;
#295 = EDGE_CURVE ( 'NONE', #128, #378, #336, .T. ) ;
#296 = CC_DESIGN_PERSON_AND_ORGANIZATION_ASSIGNMENT ( #154, #91, ( #276 ) ) ;
#297 = CALENDAR_DATE ( 2020, 12, 8 ) ;
#298 = CARTESIAN_POINT ( 'NONE',  ( 16.00000000000000000, 1.959434878635765131E-15, 2.299999999999999822 ) ) ;
#299 = DIRECTION ( 'NONE',  ( -0.0000000000000000000, -0.0000000000000000000, -1.000000000000000000 ) ) ;
#300 = DIRECTION ( 'NONE',  ( -1.000000000000000000, 0.0000000000000000000, 0.0000000000000000000 ) ) ;
#301 = DIRECTION ( 'NONE',  ( 0.0000000000000000000, 0.0000000000000000000, 1.000000000000000000 ) ) ;
#302 = ORIENTED_EDGE ( 'NONE', *, *, #85, .F. ) ;
#303 = FACE_BOUND ( 'NONE', #59, .T. ) ;
#304 = AXIS2_PLACEMENT_3D ( 'NONE', #236, #325, #230 ) ;
#305 = DIRECTION ( 'NONE',  ( -1.000000000000000000, 0.0000000000000000000, 0.0000000000000000000 ) ) ;
#306 = AXIS2_PLACEMENT_3D ( 'NONE', #43, #299, #204 ) ;
#307 = EDGE_LOOP ( 'NONE', ( #259, #394, #189, #5 ) ) ;
#308 = VERTEX_POINT ( 'NONE', #335 ) ;
#309 = VECTOR ( 'NONE', #385, 1000.000000000000000 ) ;
#310 = ORIENTED_EDGE ( 'NONE', *, *, #281, .F. ) ;
#311 = EDGE_CURVE ( 'NONE', #308, #168, #288, .T. ) ;
#312 = DATE_AND_TIME ( #393, #126 ) ;
#313 = CC_DESIGN_DATE_AND_TIME_ASSIGNMENT ( #373, #287, ( #276 ) ) ;
#314 = ORIENTED_EDGE ( 'NONE', *, *, #85, .T. ) ;
#315 = SECURITY_CLASSIFICATION_LEVEL ( 'unclassified' ) ;
#316 = DIRECTION ( 'NONE',  ( 1.000000000000000000, 0.0000000000000000000, 0.0000000000000000000 ) ) ;
#317 = ORIENTED_EDGE ( 'NONE', *, *, #106, .T. ) ;
#318 = PERSON_AND_ORGANIZATION ( #112, #412 ) ;
#319 = ADVANCED_FACE ( 'NONE', ( #68 ), #280, .T. ) ;
#320 = CARTESIAN_POINT ( 'NONE',  ( 11.00000000000000000, 1.347111479062088405E-15, -1.599999999999999867 ) ) ;
#321 = VECTOR ( 'NONE', #133, 1000.000000000000000 ) ;
#322 = DIRECTION ( 'NONE',  ( -1.000000000000000000, 0.0000000000000000000, 0.0000000000000000000 ) ) ;
#323 = VECTOR ( 'NONE', #330, 1000.000000000000000 ) ;
#324 = CARTESIAN_POINT ( 'NONE',  ( 0.0000000000000000000, 0.0000000000000000000, 0.0000000000000000000 ) ) ;
#325 = DIRECTION ( 'NONE',  ( -0.0000000000000000000, -0.0000000000000000000, -1.000000000000000000 ) ) ;
#326 =( GEOMETRIC_REPRESENTATION_CONTEXT ( 3 ) GLOBAL_UNCERTAINTY_ASSIGNED_CONTEXT ( ( #3 ) ) GLOBAL_UNIT_ASSIGNED_CONTEXT ( ( #227, #6, #194 ) ) REPRESENTATION_CONTEXT ( 'NONE', 'WORKASPACE' ) );
#327 = DIRECTION ( 'NONE',  ( -0.0000000000000000000, -0.0000000000000000000, -1.000000000000000000 ) ) ;
#328 = ORIENTED_EDGE ( 'NONE', *, *, #171, .T. ) ;
#329 = AXIS2_PLACEMENT_3D ( 'NONE', #145, #361, #178 ) ;
#330 = DIRECTION ( 'NONE',  ( -0.0000000000000000000, -0.0000000000000000000, -1.000000000000000000 ) ) ;
#331 = AXIS2_PLACEMENT_3D ( 'NONE', #209, #403, #300 ) ;
#332 = ORIENTED_EDGE ( 'NONE', *, *, #102, .T. ) ;
#333 = APPROVAL_PERSON_ORGANIZATION ( #93, #339, #260 ) ;
#334 = CARTESIAN_POINT ( 'NONE',  ( 0.0000000000000000000, 0.0000000000000000000, -1.599999999999999867 ) ) ;
#335 = CARTESIAN_POINT ( 'NONE',  ( -11.00000000000000000, 0.0000000000000000000, -1.800000000000000044 ) ) ;
#336 = CIRCLE ( 'NONE', #105, 12.65000000000000036 ) ;
#337 = CYLINDRICAL_SURFACE ( 'NONE', #253, 12.65000000000000036 ) ;
#338 = EDGE_LOOP ( 'NONE', ( #407, #310, #278, #45 ) ) ;
#339 = APPROVAL ( #61, 'UNSPECIFIED' ) ;
#340 = EDGE_LOOP ( 'NONE', ( #317, #359 ) ) ;
#341 = CALENDAR_DATE ( 2020, 12, 8 ) ;
#342 = VECTOR ( 'NONE', #269, 1000.000000000000000 ) ;
#343 = VECTOR ( 'NONE', #109, 1000.000000000000000 ) ;
#344 = AXIS2_PLACEMENT_3D ( 'NONE', #231, #10, #197 ) ;
#345 = AXIS2_PLACEMENT_3D ( 'NONE', #392, #200, #12 ) ;
#346 = AXIS2_PLACEMENT_3D ( 'NONE', #132, #353, #384 ) ;
#347 = EDGE_LOOP ( 'NONE', ( #38, #134 ) ) ;
#348 = DATE_AND_TIME ( #183, #28 ) ;
#349 = PERSON_AND_ORGANIZATION_ROLE ( 'creator' ) ;
#350 = CARTESIAN_POINT ( 'NONE',  ( 0.0000000000000000000, 0.0000000000000000000, 0.0000000000000000000 ) ) ;
#351 = FACE_OUTER_BOUND ( 'NONE', #383, .T. ) ;
#352 = ADVANCED_FACE ( 'NONE', ( #248 ), #14, .T. ) ;
#353 = DIRECTION ( 'NONE',  ( 0.0000000000000000000, 0.0000000000000000000, 1.000000000000000000 ) ) ;
#354 = DIRECTION ( 'NONE',  ( -1.000000000000000000, 0.0000000000000000000, 0.0000000000000000000 ) ) ;
#355 = DIRECTION ( 'NONE',  ( 0.0000000000000000000, 0.0000000000000000000, -1.000000000000000000 ) ) ;
#356 = PLANE ( 'NONE',  #243 ) ;
#357 = CC_DESIGN_APPROVAL ( #339, ( #276 ) ) ;
#358 = CARTESIAN_POINT ( 'NONE',  ( -12.65000000000000036, 0.0000000000000000000, 2.299999999999999822 ) ) ;
#359 = ORIENTED_EDGE ( 'NONE', *, *, #150, .T. ) ;
#360 = DIRECTION ( 'NONE',  ( 0.0000000000000000000, 0.0000000000000000000, 1.000000000000000000 ) ) ;
#361 = DIRECTION ( 'NONE',  ( 0.0000000000000000000, 0.0000000000000000000, 1.000000000000000000 ) ) ;
#362 = CIRCLE ( 'NONE', #143, 11.00000000000000000 ) ;
#363 = EDGE_CURVE ( 'NONE', #73, #308, #254, .T. ) ;
#364 = DIRECTION ( 'NONE',  ( -0.0000000000000000000, -0.0000000000000000000, -1.000000000000000000 ) ) ;
#365 = ORIENTED_EDGE ( 'NONE', *, *, #281, .T. ) ;
#366 = EDGE_CURVE ( 'NONE', #63, #147, #113, .T. ) ;
#367 = CARTESIAN_POINT ( 'NONE',  ( 0.0000000000000000000, 0.0000000000000000000, -1.800000000000000044 ) ) ;
#368 = COORDINATED_UNIVERSAL_TIME_OFFSET ( 1, 0, .AHEAD. ) ;
#369 = EDGE_LOOP ( 'NONE', ( #53, #282, #60, #332 ) ) ;
#370 = AXIS2_PLACEMENT_3D ( 'NONE', #103, #40, #138 ) ;
#371 = LINE ( 'NONE', #298, #343 ) ;
#372 = VERTEX_POINT ( 'NONE', #72 ) ;
#373 = DATE_AND_TIME ( #341, #137 ) ;
#374 = APPROVAL_DATE_TIME ( #348, #339 ) ;
#375 = EDGE_CURVE ( 'NONE', #244, #372, #404, .T. ) ;
#376 = PERSON_AND_ORGANIZATION ( #112, #412 ) ;
#377 = CC_DESIGN_SECURITY_CLASSIFICATION ( #276, ( #170 ) ) ;
#378 = VERTEX_POINT ( 'NONE', #199 ) ;
#379 = FACE_OUTER_BOUND ( 'NONE', #285, .T. ) ;
#380 = APPROVAL_STATUS ( 'not_yet_approved' ) ;
#381 = DIRECTION ( 'NONE',  ( -1.000000000000000000, 0.0000000000000000000, 0.0000000000000000000 ) ) ;
#382 = EDGE_CURVE ( 'NONE', #128, #187, #191, .T. ) ;
#383 = EDGE_LOOP ( 'NONE', ( #365, #160 ) ) ;
#384 = DIRECTION ( 'NONE',  ( 1.000000000000000000, 0.0000000000000000000, 0.0000000000000000000 ) ) ;
#385 = DIRECTION ( 'NONE',  ( -0.0000000000000000000, -0.0000000000000000000, 1.000000000000000000 ) ) ;
#386 = PERSON_AND_ORGANIZATION ( #112, #412 ) ;
#387 = ADVANCED_FACE ( 'NONE', ( #95 ), #167, .T. ) ;
#388 = CARTESIAN_POINT ( 'NONE',  ( 0.0000000000000000000, 0.0000000000000000000, -1.800000000000000044 ) ) ;
#389 = AXIS2_PLACEMENT_3D ( 'NONE', #334, #364, #49 ) ;
#390 = CARTESIAN_POINT ( 'NONE',  ( -12.65000000000000036, 0.0000000000000000000, 5.200000000000000178 ) ) ;
#391 = CIRCLE ( 'NONE', #345, 11.00000000000000000 ) ;
#392 = CARTESIAN_POINT ( 'NONE',  ( 0.0000000000000000000, 0.0000000000000000000, -1.599999999999999867 ) ) ;
#393 = CALENDAR_DATE ( 2020, 12, 8 ) ;
#394 = ORIENTED_EDGE ( 'NONE', *, *, #106, .F. ) ;
#395 = CARTESIAN_POINT ( 'NONE',  ( 0.0000000000000000000, 0.0000000000000000000, 2.299999999999999822 ) ) ;
#396 = DIRECTION ( 'NONE',  ( -1.000000000000000000, 0.0000000000000000000, -0.0000000000000000000 ) ) ;
#397 = AXIS2_PLACEMENT_3D ( 'NONE', #201, #13, #42 ) ;
#398 = ORIENTED_EDGE ( 'NONE', *, *, #125, .T. ) ;
#399 = DIRECTION ( 'NONE',  ( 0.0000000000000000000, 0.0000000000000000000, -1.000000000000000000 ) ) ;
#400 = CLOSED_SHELL ( 'NONE', ( #268, #135, #195, #164, #36, #233, #9, #65, #387, #319, #99, #290, #352 ) ) ;
#401 = PERSON_AND_ORGANIZATION ( #112, #412 ) ;
#402 = PRODUCT ( '04104500d', '04104500d', '', ( #94 ) ) ;
#403 = DIRECTION ( 'NONE',  ( 0.0000000000000000000, 0.0000000000000000000, -1.000000000000000000 ) ) ;
#404 = CIRCLE ( 'NONE', #221, 16.00000000000000000 ) ;
#405 = LINE ( 'NONE', #196, #323 ) ;
#406 = DIRECTION ( 'NONE',  ( -0.0000000000000000000, -0.0000000000000000000, -1.000000000000000000 ) ) ;
#407 = ORIENTED_EDGE ( 'NONE', *, *, #366, .F. ) ;
#408 = PRODUCT_RELATED_PRODUCT_CATEGORY ( 'detail', '', ( #402 ) ) ;
#409 = ORIENTED_EDGE ( 'NONE', *, *, #150, .F. ) ;
#410 = ORIENTED_EDGE ( 'NONE', *, *, #295, .T. ) ;
#411 = EDGE_CURVE ( 'NONE', #17, #168, #232, .T. ) ;
#412 = ORGANIZATION ( 'UNSPECIFIED', 'UNSPECIFIED', '' ) ;
#413 = FACE_OUTER_BOUND ( 'NONE', #369, .T. ) ;
#414 = EDGE_CURVE ( 'NONE', #87, #372, #121, .T. ) ;
#415 = ORIENTED_EDGE ( 'NONE', *, *, #414, .T. ) ;
ENDSEC;
END-ISO-10303-21;
