ISO-10303-21;
HEADER;
FILE_DESCRIPTION (( 'STEP AP203' ),
    '1' );
FILE_NAME ('07786117.STEP',
    '2013-07-09T08:10:15',
    ( '' ),
    ( '' ),
    'SwSTEP 2.0',
    'SolidWorks 2010',
    '' );
FILE_SCHEMA (( 'CONFIG_CONTROL_DESIGN' ));
ENDSEC;

DATA;
#1 = CARTESIAN_POINT ( 'NONE',  ( -49.99999999999998600, 50.00000000000000000, 0.2999999999999999900 ) ) ;
#2 = DIRECTION ( 'NONE',  ( 1.000000000000000000, 0.0000000000000000000, 0.0000000000000000000 ) ) ;
#3 = DIRECTION ( 'NONE',  ( -0.0000000000000000000, 0.0000000000000000000, 1.000000000000000000 ) ) ;
#4 = CARTESIAN_POINT ( 'NONE',  ( 50.00000000000001400, 50.00000000000000000, 0.0000000000000000000 ) ) ;
#5 = DIRECTION ( 'NONE',  ( 0.0000000000000000000, -1.000000000000000000, 0.0000000000000000000 ) ) ;
#6 = DIRECTION ( 'NONE',  ( -1.387778780781445700E-016, 1.000000000000000000, 0.0000000000000000000 ) ) ;
#7 = PLANE ( 'NONE',  #209 ) ;
#8 = DIRECTION ( 'NONE',  ( -0.0000000000000000000, 0.0000000000000000000, 1.000000000000000000 ) ) ;
#9 = DIRECTION ( 'NONE',  ( 1.000000000000000000, 0.0000000000000000000, 0.0000000000000000000 ) ) ;
#10 = CARTESIAN_POINT ( 'NONE',  ( 50.00000000000001400, 50.00000000000000000, 0.2999999999999999900 ) ) ;
#11 = DIRECTION ( 'NONE',  ( -0.0000000000000000000, -0.0000000000000000000, -1.000000000000000000 ) ) ;
#12 = CARTESIAN_POINT ( 'NONE',  ( -49.99999999999998600, 50.00000000000000000, 0.0000000000000000000 ) ) ;
#13 = CARTESIAN_POINT ( 'NONE',  ( 50.00000000000002100, -50.00000000000000000, 0.2999999999999999900 ) ) ;
#14 =( LENGTH_UNIT ( ) NAMED_UNIT ( * ) SI_UNIT ( .MILLI., .METRE. ) );
#15 = DIRECTION ( 'NONE',  ( -0.0000000000000000000, -0.0000000000000000000, -1.000000000000000000 ) ) ;
#16 = DIRECTION ( 'NONE',  ( 1.387778780781445700E-016, -1.000000000000000000, 0.0000000000000000000 ) ) ;
#17 = CARTESIAN_POINT ( 'NONE',  ( -49.99999999999998600, 50.00000000000000000, 0.2999999999999999900 ) ) ;
#18 = CARTESIAN_POINT ( 'NONE',  ( 0.0000000000000000000, 0.0000000000000000000, 0.0000000000000000000 ) ) ;
#19 = DIRECTION ( 'NONE',  ( 1.000000000000000000, 0.0000000000000000000, 0.0000000000000000000 ) ) ;
#20 = APPLICATION_CONTEXT ( 'configuration controlled 3d designs of mechanical parts and assemblies' ) ;
#21 = APPLICATION_PROTOCOL_DEFINITION ( 'international standard', 'config_control_design', 1994, #20 ) ;
#22 = MECHANICAL_CONTEXT ( 'NONE', #20, 'mechanical' ) ;
#23 = PERSON_AND_ORGANIZATION_ROLE ( 'design_owner' ) ;
#24 = APPLICATION_CONTEXT ( 'configuration controlled 3d designs of mechanical parts and assemblies' ) ;
#25 = APPLICATION_PROTOCOL_DEFINITION ( 'international standard', 'config_control_design', 1994, #24 ) ;
#26 = APPROVAL_STATUS ( 'not_yet_approved' ) ;
#27 = APPROVAL_ROLE ( '' ) ;
#28 = PERSON_AND_ORGANIZATION_ROLE ( 'creator' ) ;
#29 = DATE_TIME_ROLE ( 'creation_date' ) ;
#30 = APPROVAL_STATUS ( 'not_yet_approved' ) ;
#31 = APPROVAL_ROLE ( '' ) ;
#32 = PERSON_AND_ORGANIZATION_ROLE ( 'creator' ) ;
#33 = PERSON_AND_ORGANIZATION_ROLE ( 'design_supplier' ) ;
#34 = SECURITY_CLASSIFICATION_LEVEL ( 'unclassified' ) ;
#35 = PERSON_AND_ORGANIZATION_ROLE ( 'classification_officer' ) ;
#36 = DATE_TIME_ROLE ( 'classification_date' ) ;
#37 = APPROVAL_STATUS ( 'not_yet_approved' ) ;
#38 = APPROVAL_ROLE ( '' ) ;
#39 = DIRECTION ( 'NONE',  ( -1.000000000000000000, -0.0000000000000000000, -0.0000000000000000000 ) ) ;
#40 = DIRECTION ( 'NONE',  ( -6.938893903907228400E-017, 1.000000000000000000, -0.0000000000000000000 ) ) ;
#41 = CARTESIAN_POINT ( 'NONE',  ( -49.99999999999997200, -50.00000000000000000, 0.0000000000000000000 ) ) ;
#42 = VERTEX_POINT ( 'NONE', #58 ) ;
#43 = CARTESIAN_POINT ( 'NONE',  ( -49.99999999999997200, -50.00000000000000000, 0.2999999999999999900 ) ) ;
#44 = DIRECTION ( 'NONE',  ( -0.0000000000000000000, -0.0000000000000000000, -1.000000000000000000 ) ) ;
#45 = CARTESIAN_POINT ( 'NONE',  ( -49.99999999999998600, 50.00000000000000000, 0.2999999999999999900 ) ) ;
#46 = PLANE ( 'NONE',  #205 ) ;
#47 = VERTEX_POINT ( 'NONE', #83 ) ;
#48 = VERTEX_POINT ( 'NONE', #88 ) ;
#49 = CARTESIAN_POINT ( 'NONE',  ( 50.00000000000002100, -50.00000000000000000, 0.2999999999999999900 ) ) ;
#50 = CARTESIAN_POINT ( 'NONE',  ( 50.00000000000001400, 50.00000000000000000, 0.2999999999999999900 ) ) ;
#51 = CARTESIAN_POINT ( 'NONE',  ( -49.99999999999997200, -50.00000000000000000, 0.2999999999999999900 ) ) ;
#52 = DIRECTION ( 'NONE',  ( -1.000000000000000000, -0.0000000000000000000, -0.0000000000000000000 ) ) ;
#53 = CARTESIAN_POINT ( 'NONE',  ( -49.99999999999998600, 50.00000000000000000, 0.2999999999999999900 ) ) ;
#54 = VERTEX_POINT ( 'NONE', #86 ) ;
#55 = VERTEX_POINT ( 'NONE', #51 ) ;
#56 = DIRECTION ( 'NONE',  ( 1.000000000000000000, 1.387778780781445700E-016, -0.0000000000000000000 ) ) ;
#57 = VERTEX_POINT ( 'NONE', #53 ) ;
#58 = CARTESIAN_POINT ( 'NONE',  ( 50.00000000000002100, -50.00000000000000000, 0.0000000000000000000 ) ) ;
#59 = DIRECTION ( 'NONE',  ( 1.000000000000000000, 0.0000000000000000000, 0.0000000000000000000 ) ) ;
#60 = VERTEX_POINT ( 'NONE', #49 ) ;
#61 = DIRECTION ( 'NONE',  ( 1.000000000000000000, 0.0000000000000000000, 0.0000000000000000000 ) ) ;
#62 =( NAMED_UNIT ( * ) SI_UNIT ( $, .STERADIAN. ) SOLID_ANGLE_UNIT ( ) );
#63 = DIRECTION ( 'NONE',  ( -0.0000000000000000000, -0.0000000000000000000, -1.000000000000000000 ) ) ;
#64 =( NAMED_UNIT ( * ) PLANE_ANGLE_UNIT ( ) SI_UNIT ( $, .RADIAN. ) );
#65 = PLANE ( 'NONE',  #208 ) ;
#66 = DIRECTION ( 'NONE',  ( 0.0000000000000000000, -0.0000000000000000000, -1.000000000000000000 ) ) ;
#67 = CARTESIAN_POINT ( 'NONE',  ( -49.99999999999998600, 50.00000000000000000, 0.2999999999999999900 ) ) ;
#68 = PLANE ( 'NONE',  #228 ) ;
#69 = DIRECTION ( 'NONE',  ( 6.938893903907228400E-017, -1.000000000000000000, 0.0000000000000000000 ) ) ;
#70 = DIRECTION ( 'NONE',  ( -1.000000000000000000, -6.938893903907228400E-017, 0.0000000000000000000 ) ) ;
#71 = PLANE ( 'NONE',  #227 ) ;
#72 = DIRECTION ( 'NONE',  ( 0.0000000000000000000, 1.000000000000000000, 0.0000000000000000000 ) ) ;
#73 = DIRECTION ( 'NONE',  ( 0.0000000000000000000, -0.0000000000000000000, 1.000000000000000000 ) ) ;
#74 = CARTESIAN_POINT ( 'NONE',  ( -49.99999999999997200, -50.00000000000000000, 0.2999999999999999900 ) ) ;
#75 = CARTESIAN_POINT ( 'NONE',  ( 50.00000000000002800, -50.00000000000000000, 0.2999999999999999900 ) ) ;
#76 = CARTESIAN_POINT ( 'NONE',  ( 50.00000000000002800, -50.00000000000000000, 0.0000000000000000000 ) ) ;
#77 = PLANE ( 'NONE',  #234 ) ;
#78 = DIRECTION ( 'NONE',  ( 0.0000000000000000000, 0.0000000000000000000, 1.000000000000000000 ) ) ;
#79 = CARTESIAN_POINT ( 'NONE',  ( 50.00000000000001400, 50.00000000000000000, 0.0000000000000000000 ) ) ;
#80 = DIRECTION ( 'NONE',  ( -6.938893903907228400E-017, 1.000000000000000000, -0.0000000000000000000 ) ) ;
#81 = VERTEX_POINT ( 'NONE', #4 ) ;
#82 = CARTESIAN_POINT ( 'NONE',  ( -49.99999999999998600, 50.00000000000000000, 0.2999999999999999900 ) ) ;
#83 = CARTESIAN_POINT ( 'NONE',  ( -49.99999999999998600, 50.00000000000000000, 0.0000000000000000000 ) ) ;
#84 = CARTESIAN_POINT ( 'NONE',  ( 50.00000000000001400, 50.00000000000000000, 0.2999999999999999900 ) ) ;
#85 = CARTESIAN_POINT ( 'NONE',  ( -49.99999999999998600, 50.00000000000000000, 0.0000000000000000000 ) ) ;
#86 = CARTESIAN_POINT ( 'NONE',  ( -49.99999999999997200, -50.00000000000000000, 0.0000000000000000000 ) ) ;
#87 = CARTESIAN_POINT ( 'NONE',  ( -49.99999999999997200, -50.00000000000000000, 0.2999999999999999900 ) ) ;
#88 = CARTESIAN_POINT ( 'NONE',  ( 50.00000000000001400, 50.00000000000000000, 0.2999999999999999900 ) ) ;
#89 = DIRECTION ( 'NONE',  ( 1.387778780781445700E-016, -1.000000000000000000, 0.0000000000000000000 ) ) ;
#90 = PRODUCT ( '07786117', '07786117', '', ( #22 ) ) ;
#91 = PERSON ( 'UNSPECIFIED', 'UNSPECIFIED', 'UNSPECIFIED', ('UNSPECIFIED'), ('UNSPECIFIED'), ('UNSPECIFIED') ) ;
#92 = EDGE_LOOP ( 'NONE', ( #132, #100, #141, #133 ) ) ;
#93 = ORIENTED_EDGE ( 'NONE', *, *, #233, .F. ) ;
#94 = ORIENTED_EDGE ( 'NONE', *, *, #211, .F. ) ;
#95 = CLOSED_SHELL ( 'NONE', ( #197, #195, #198, #196, #194, #193 ) ) ;
#96 = VECTOR ( 'NONE', #52, 1000.000000000000000 ) ;
#97 = LINE ( 'NONE', #50, #144 ) ;
#98 = FACE_OUTER_BOUND ( 'NONE', #92, .T. ) ;
#99 = LINE ( 'NONE', #41, #101 ) ;
#100 = ORIENTED_EDGE ( 'NONE', *, *, #207, .F. ) ;
#101 = VECTOR ( 'NONE', #61, 1000.000000000000000 ) ;
#102 = ORIENTED_EDGE ( 'NONE', *, *, #199, .T. ) ;
#103 = LINE ( 'NONE', #43, #104 ) ;
#104 = VECTOR ( 'NONE', #59, 1000.000000000000000 ) ;
#105 = ORIENTED_EDGE ( 'NONE', *, *, #235, .T. ) ;
#106 = ORIENTED_EDGE ( 'NONE', *, *, #206, .F. ) ;
#107 = LINE ( 'NONE', #87, #108 ) ;
#108 = VECTOR ( 'NONE', #11, 1000.000000000000000 ) ;
#109 = VECTOR ( 'NONE', #15, 1000.000000000000000 ) ;
#110 = EDGE_LOOP ( 'NONE', ( #93, #94, #121, #119 ) ) ;
#111 = FACE_OUTER_BOUND ( 'NONE', #110, .T. ) ;
#112 = LINE ( 'NONE', #17, #131 ) ;
#113 = ORIENTED_EDGE ( 'NONE', *, *, #203, .T. ) ;
#114 = ORIENTED_EDGE ( 'NONE', *, *, #207, .T. ) ;
#115 = ORIENTED_EDGE ( 'NONE', *, *, #233, .T. ) ;
#116 = EDGE_LOOP ( 'NONE', ( #115, #150, #136, #140 ) ) ;
#117 = EDGE_LOOP ( 'NONE', ( #105, #129, #134, #102 ) ) ;
#118 = PERSON_AND_ORGANIZATION ( #91, #187 ) ;
#119 = ORIENTED_EDGE ( 'NONE', *, *, #235, .F. ) ;
#120 = FACE_OUTER_BOUND ( 'NONE', #116, .T. ) ;
#121 = ORIENTED_EDGE ( 'NONE', *, *, #232, .F. ) ;
#122 = VECTOR ( 'NONE', #44, 1000.000000000000000 ) ;
#123 = LINE ( 'NONE', #45, #124 ) ;
#124 = VECTOR ( 'NONE', #63, 1000.000000000000000 ) ;
#125 = FACE_OUTER_BOUND ( 'NONE', #147, .T. ) ;
#126 = LINE ( 'NONE', #84, #122 ) ;
#127 = LINE ( 'NONE', #12, #143 ) ;
#128 = LINE ( 'NONE', #82, #96 ) ;
#129 = ORIENTED_EDGE ( 'NONE', *, *, #202, .F. ) ;
#130 = FACE_OUTER_BOUND ( 'NONE', #117, .T. ) ;
#131 = VECTOR ( 'NONE', #16, 1000.000000000000000 ) ;
#132 = ORIENTED_EDGE ( 'NONE', *, *, #232, .T. ) ;
#133 = ORIENTED_EDGE ( 'NONE', *, *, #202, .T. ) ;
#134 = ORIENTED_EDGE ( 'NONE', *, *, #201, .F. ) ;
#135 = ORIENTED_EDGE ( 'NONE', *, *, #229, .T. ) ;
#136 = ORIENTED_EDGE ( 'NONE', *, *, #203, .F. ) ;
#137 = ORIENTED_EDGE ( 'NONE', *, *, #230, .F. ) ;
#138 = PERSON_AND_ORGANIZATION ( #91, #187 ) ;
#139 = APPROVAL_PERSON_ORGANIZATION ( #145, #204, #38 ) ;
#140 = ORIENTED_EDGE ( 'NONE', *, *, #230, .T. ) ;
#141 = ORIENTED_EDGE ( 'NONE', *, *, #229, .F. ) ;
#142 = COORDINATED_UNIVERSAL_TIME_OFFSET ( 1, 0, .AHEAD. ) ;
#143 = VECTOR ( 'NONE', #89, 1000.000000000000000 ) ;
#144 = VECTOR ( 'NONE', #40, 1000.000000000000000 ) ;
#145 = PERSON_AND_ORGANIZATION ( #91, #187 ) ;
#146 = CALENDAR_DATE ( 2013, 9, 7 ) ;
#147 = EDGE_LOOP ( 'NONE', ( #149, #137, #106, #114 ) ) ;
#148 = ORIENTED_EDGE ( 'NONE', *, *, #206, .T. ) ;
#149 = ORIENTED_EDGE ( 'NONE', *, *, #211, .T. ) ;
#150 = ORIENTED_EDGE ( 'NONE', *, *, #199, .F. ) ;
#151 = DATE_AND_TIME ( #181, #182 ) ;
#152 = FACE_OUTER_BOUND ( 'NONE', #158, .T. ) ;
#153 = PERSON_AND_ORGANIZATION ( #91, #187 ) ;
#154 = ORIENTED_EDGE ( 'NONE', *, *, #201, .T. ) ;
#155 = CALENDAR_DATE ( 2013, 9, 7 ) ;
#156 = APPROVAL_DATE_TIME ( #151, #221 ) ;
#157 = DATE_AND_TIME ( #155, #159 ) ;
#158 = EDGE_LOOP ( 'NONE', ( #113, #154, #135, #148 ) ) ;
#159 = LOCAL_TIME ( 10, 10, 15.00000000000000000, #164 ) ;
#160 = DATE_AND_TIME ( #161, #165 ) ;
#161 = CALENDAR_DATE ( 2013, 9, 7 ) ;
#162 = PERSON_AND_ORGANIZATION ( #91, #187 ) ;
#163 = LINE ( 'NONE', #13, #109 ) ;
#164 = COORDINATED_UNIVERSAL_TIME_OFFSET ( 1, 0, .AHEAD. ) ;
#165 = LOCAL_TIME ( 10, 10, 15.00000000000000000, #170 ) ;
#166 = COORDINATED_UNIVERSAL_TIME_OFFSET ( 1, 0, .AHEAD. ) ;
#167 = LOCAL_TIME ( 10, 10, 15.00000000000000000, #166 ) ;
#168 = APPROVAL_DATE_TIME ( #160, #215 ) ;
#169 = APPROVAL_PERSON_ORGANIZATION ( #162, #215, #31 ) ;
#170 = COORDINATED_UNIVERSAL_TIME_OFFSET ( 1, 0, .AHEAD. ) ;
#171 = LOCAL_TIME ( 10, 10, 15.00000000000000000, #142 ) ;
#172 = PERSON_AND_ORGANIZATION ( #91, #187 ) ;
#173 = DATE_AND_TIME ( #174, #167 ) ;
#174 = CALENDAR_DATE ( 2013, 9, 7 ) ;
#175 = DATE_AND_TIME ( #146, #171 ) ;
#176 = APPROVAL_DATE_TIME ( #175, #204 ) ;
#177 = LINE ( 'NONE', #85, #180 ) ;
#178 = VECTOR ( 'NONE', #80, 1000.000000000000000 ) ;
#179 = LINE ( 'NONE', #79, #178 ) ;
#180 = VECTOR ( 'NONE', #39, 1000.000000000000000 ) ;
#181 = CALENDAR_DATE ( 2013, 9, 7 ) ;
#182 = LOCAL_TIME ( 10, 10, 15.00000000000000000, #183 ) ;
#183 = COORDINATED_UNIVERSAL_TIME_OFFSET ( 1, 0, .AHEAD. ) ;
#184 = APPROVAL_PERSON_ORGANIZATION ( #185, #221, #27 ) ;
#185 = PERSON_AND_ORGANIZATION ( #91, #187 ) ;
#186 = PERSON_AND_ORGANIZATION ( #91, #187 ) ;
#187 = ORGANIZATION ( 'UNSPECIFIED', 'UNSPECIFIED', '' ) ;
#188 = SHAPE_DEFINITION_REPRESENTATION ( #237, #192 ) ;
#189 =( GEOMETRIC_REPRESENTATION_CONTEXT ( 3 ) GLOBAL_UNCERTAINTY_ASSIGNED_CONTEXT ( ( #191 ) ) GLOBAL_UNIT_ASSIGNED_CONTEXT ( ( #14, #64, #62 ) ) REPRESENTATION_CONTEXT ( 'NONE', 'WORKASPACE' ) );
#190 = MANIFOLD_SOLID_BREP ( 'Aufsatz-Linear austragen1', #95 ) ;
#191 = UNCERTAINTY_MEASURE_WITH_UNIT (LENGTH_MEASURE( 1.000000000000000100E-005 ), #14, 'distance_accuracy_value', 'NONE');
#192 = ADVANCED_BREP_SHAPE_REPRESENTATION ( '07786117', ( #190, #200 ), #189 ) ;
#193 = ADVANCED_FACE ( 'NONE', ( #111 ), #46, .F. ) ;
#194 = ADVANCED_FACE ( 'NONE', ( #152 ), #77, .T. ) ;
#195 = ADVANCED_FACE ( 'NONE', ( #130 ), #7, .F. ) ;
#196 = ADVANCED_FACE ( 'NONE', ( #125 ), #65, .F. ) ;
#197 = ADVANCED_FACE ( 'NONE', ( #120 ), #68, .F. ) ;
#198 = ADVANCED_FACE ( 'NONE', ( #98 ), #71, .F. ) ;
#199 = EDGE_CURVE ( 'NONE', #48, #81, #126, .T. ) ;
#200 = AXIS2_PLACEMENT_3D ( 'NONE', #18, #78, #19 ) ;
#201 = EDGE_CURVE ( 'NONE', #48, #57, #128, .T. ) ;
#202 = EDGE_CURVE ( 'NONE', #57, #47, #123, .T. ) ;
#203 = EDGE_CURVE ( 'NONE', #60, #48, #97, .T. ) ;
#204 = APPROVAL ( #37, 'UNSPECIFIED' ) ;
#205 = AXIS2_PLACEMENT_3D ( 'NONE', #76, #3, #2 ) ;
#206 = EDGE_CURVE ( 'NONE', #55, #60, #103, .T. ) ;
#207 = EDGE_CURVE ( 'NONE', #55, #54, #107, .T. ) ;
#208 = AXIS2_PLACEMENT_3D ( 'NONE', #74, #72, #73 ) ;
#209 = AXIS2_PLACEMENT_3D ( 'NONE', #1, #5, #66 ) ;
#210 = PRODUCT_RELATED_PRODUCT_CATEGORY ( 'detail', '', ( #90 ) ) ;
#211 = EDGE_CURVE ( 'NONE', #54, #42, #99, .T. ) ;
#212 = CC_DESIGN_PERSON_AND_ORGANIZATION_ASSIGNMENT ( #172, #35, ( #214 ) ) ;
#213 = CC_DESIGN_APPROVAL ( #204, ( #214 ) ) ;
#214 = SECURITY_CLASSIFICATION ( '', '', #34 ) ;
#215 = APPROVAL ( #30, 'UNSPECIFIED' ) ;
#216 = CC_DESIGN_PERSON_AND_ORGANIZATION_ASSIGNMENT ( #153, #28, ( #219 ) ) ;
#217 = CC_DESIGN_DATE_AND_TIME_ASSIGNMENT ( #157, #29, ( #219 ) ) ;
#218 = CC_DESIGN_APPROVAL ( #221, ( #219 ) ) ;
#219 = PRODUCT_DEFINITION ( 'UNKNOWN', '', #225, #236 ) ;
#220 = CC_DESIGN_PERSON_AND_ORGANIZATION_ASSIGNMENT ( #138, #33, ( #225 ) ) ;
#221 = APPROVAL ( #26, 'UNSPECIFIED' ) ;
#222 = CC_DESIGN_PERSON_AND_ORGANIZATION_ASSIGNMENT ( #118, #32, ( #225 ) ) ;
#223 = CC_DESIGN_APPROVAL ( #215, ( #225 ) ) ;
#224 = CC_DESIGN_DATE_AND_TIME_ASSIGNMENT ( #173, #36, ( #214 ) ) ;
#225 = PRODUCT_DEFINITION_FORMATION_WITH_SPECIFIED_SOURCE ( 'ANY', '', #90, .NOT_KNOWN. ) ;
#226 = CC_DESIGN_PERSON_AND_ORGANIZATION_ASSIGNMENT ( #186, #23, ( #90 ) ) ;
#227 = AXIS2_PLACEMENT_3D ( 'NONE', #67, #56, #6 ) ;
#228 = AXIS2_PLACEMENT_3D ( 'NONE', #10, #70, #69 ) ;
#229 = EDGE_CURVE ( 'NONE', #57, #55, #112, .T. ) ;
#230 = EDGE_CURVE ( 'NONE', #60, #42, #163, .T. ) ;
#231 = CC_DESIGN_SECURITY_CLASSIFICATION ( #214, ( #225 ) ) ;
#232 = EDGE_CURVE ( 'NONE', #47, #54, #127, .T. ) ;
#233 = EDGE_CURVE ( 'NONE', #42, #81, #179, .T. ) ;
#234 = AXIS2_PLACEMENT_3D ( 'NONE', #75, #8, #9 ) ;
#235 = EDGE_CURVE ( 'NONE', #81, #47, #177, .T. ) ;
#236 = DESIGN_CONTEXT ( 'detailed design', #24, 'design' ) ;
#237 = PRODUCT_DEFINITION_SHAPE ( 'NONE', 'NONE',  #219 ) ;
ENDSEC;
END-ISO-10303-21;
