ISO-10303-21;
HEADER;
FILE_DESCRIPTION (( 'STEP AP214' ),
    '1' );
FILE_NAME ('044025100.STEP',
    '2018-07-14T13:49:10',
    ( '' ),
    ( '' ),
    'SwSTEP 2.0',
    'SolidWorks 2017',
    '' );
FILE_SCHEMA (( 'AUTOMOTIVE_DESIGN' ));
ENDSEC;

DATA;
#1 = LINE ( 'NONE', #117, #135 ) ;
#2 = LINE ( 'NONE', #32, #125 ) ;
#3 = PLANE ( 'NONE',  #184 ) ;
#4 = FACE_OUTER_BOUND ( 'NONE', #49, .T. ) ;
#5 = EDGE_CURVE ( 'NONE', #106, #66, #29, .T. ) ;
#6 = ADVANCED_FACE ( 'NONE', ( #191 ), #118, .F. ) ;
#7 = FILL_AREA_STYLE ('',( #139 ) ) ;
#8 = DIRECTION ( 'NONE',  ( -0.0000000000000000000, 0.0000000000000000000, -1.000000000000000000 ) ) ;
#9 = COLOUR_RGB ( '',0.7921568627450980000, 0.8196078431372548800, 0.9333333333333333500 ) ;
#10 = CARTESIAN_POINT ( 'NONE',  ( -20.99999999999999600, 10.24999999999999800, 6.000000000000000000 ) ) ;
#11 = SURFACE_SIDE_STYLE ('',( #45 ) ) ;
#12 = AXIS2_PLACEMENT_3D ( 'NONE', #59, #143, #8 ) ;
#13 = VECTOR ( 'NONE', #148, 1000.000000000000000 ) ;
#14 = ORIENTED_EDGE ( 'NONE', *, *, #166, .F. ) ;
#15 = ORIENTED_EDGE ( 'NONE', *, *, #151, .T. ) ;
#16 = VECTOR ( 'NONE', #144, 1000.000000000000000 ) ;
#17 = MECHANICAL_DESIGN_GEOMETRIC_PRESENTATION_REPRESENTATION (  '', ( #104 ), #108 ) ;
#18 = EDGE_LOOP ( 'NONE', ( #95, #40, #19, #67 ) ) ;
#19 = ORIENTED_EDGE ( 'NONE', *, *, #43, .F. ) ;
#20 = DIRECTION ( 'NONE',  ( -0.0000000000000000000, -0.0000000000000000000, -1.000000000000000000 ) ) ;
#21 = ADVANCED_FACE ( 'NONE', ( #57 ), #3, .F. ) ;
#22 = APPLICATION_PROTOCOL_DEFINITION ( 'draft international standard', 'automotive_design', 1998, #152 ) ;
#23 = EDGE_CURVE ( 'NONE', #66, #50, #44, .T. ) ;
#24 = APPLICATION_CONTEXT ( 'automotive_design' ) ;
#25 = DIRECTION ( 'NONE',  ( -0.0000000000000000000, 0.0000000000000000000, 1.000000000000000000 ) ) ;
#26 = ORIENTED_EDGE ( 'NONE', *, *, #43, .T. ) ;
#27 = VERTEX_POINT ( 'NONE', #186 ) ;
#28 = CARTESIAN_POINT ( 'NONE',  ( -20.99999999999999600, -10.25000000000000200, 6.000000000000000000 ) ) ;
#29 = LINE ( 'NONE', #78, #103 ) ;
#30 = ORIENTED_EDGE ( 'NONE', *, *, #200, .T. ) ;
#31 = ORIENTED_EDGE ( 'NONE', *, *, #107, .T. ) ;
#32 = CARTESIAN_POINT ( 'NONE',  ( -20.99999999999999600, -10.25000000000000200, 6.000000000000000000 ) ) ;
#33 = DIRECTION ( 'NONE',  ( -1.000000000000000000, -0.0000000000000000000, -0.0000000000000000000 ) ) ;
#34 = PLANE ( 'NONE',  #114 ) ;
#35 = ORIENTED_EDGE ( 'NONE', *, *, #168, .T. ) ;
#36 = EDGE_CURVE ( 'NONE', #61, #106, #149, .T. ) ;
#37 = DIRECTION ( 'NONE',  ( 0.0000000000000000000, -1.000000000000000000, 0.0000000000000000000 ) ) ;
#38 = PRODUCT_DEFINITION ( 'UNKNOWN', '', #133, #192 ) ;
#39 = ORIENTED_EDGE ( 'NONE', *, *, #140, .F. ) ;
#40 = ORIENTED_EDGE ( 'NONE', *, *, #107, .F. ) ;
#41 = EDGE_LOOP ( 'NONE', ( #15, #97, #105, #174 ) ) ;
#42 = ORIENTED_EDGE ( 'NONE', *, *, #5, .T. ) ;
#43 = EDGE_CURVE ( 'NONE', #50, #27, #51, .T. ) ;
#44 = LINE ( 'NONE', #183, #13 ) ;
#45 = SURFACE_STYLE_FILL_AREA ( #147 ) ;
#46 = VECTOR ( 'NONE', #33, 1000.000000000000000 ) ;
#47 = DIRECTION ( 'NONE',  ( 0.0000000000000000000, -1.000000000000000000, 0.0000000000000000000 ) ) ;
#48 = LINE ( 'NONE', #10, #46 ) ;
#49 = EDGE_LOOP ( 'NONE', ( #31, #69, #39, #35 ) ) ;
#50 = VERTEX_POINT ( 'NONE', #167 ) ;
#51 = LINE ( 'NONE', #99, #136 ) ;
#52 = PRODUCT_CONTEXT ( 'NONE', #24, 'mechanical' ) ;
#53 = ORIENTED_EDGE ( 'NONE', *, *, #159, .F. ) ;
#54 = APPLICATION_PROTOCOL_DEFINITION ( 'draft international standard', 'automotive_design', 1998, #24 ) ;
#55 = ORIENTED_EDGE ( 'NONE', *, *, #36, .T. ) ;
#56 = ORIENTED_EDGE ( 'NONE', *, *, #200, .F. ) ;
#57 = FACE_OUTER_BOUND ( 'NONE', #65, .T. ) ;
#58 = CARTESIAN_POINT ( 'NONE',  ( 0.0000000000000000000, 0.0000000000000000000, 0.0000000000000000000 ) ) ;
#59 = CARTESIAN_POINT ( 'NONE',  ( -20.99999999999999600, 10.24999999999999800, 6.000000000000000000 ) ) ;
#60 = DIRECTION ( 'NONE',  ( 0.0000000000000000000, 1.000000000000000000, 0.0000000000000000000 ) ) ;
#61 = VERTEX_POINT ( 'NONE', #182 ) ;
#62 = VECTOR ( 'NONE', #20, 1000.000000000000000 ) ;
#63 = DIRECTION ( 'NONE',  ( -0.0000000000000000000, 0.0000000000000000000, 1.000000000000000000 ) ) ;
#64 = CLOSED_SHELL ( 'NONE', ( #21, #6, #164, #110, #176, #90 ) ) ;
#65 = EDGE_LOOP ( 'NONE', ( #42, #14, #122, #55 ) ) ;
#66 = VERTEX_POINT ( 'NONE', #146 ) ;
#67 = ORIENTED_EDGE ( 'NONE', *, *, #23, .F. ) ;
#68 = AXIS2_PLACEMENT_3D ( 'NONE', #197, #47, #126 ) ;
#69 = ORIENTED_EDGE ( 'NONE', *, *, #36, .F. ) ;
#70 = PRODUCT_DEFINITION_SHAPE ( 'NONE', 'NONE',  #38 ) ;
#71 = AXIS2_PLACEMENT_3D ( 'NONE', #77, #60, #155 ) ;
#72 = FILL_AREA_STYLE_COLOUR ( '', #83 ) ;
#73 = DIRECTION ( 'NONE',  ( 0.0000000000000000000, 0.0000000000000000000, 1.000000000000000000 ) ) ;
#74 =( NAMED_UNIT ( * ) SI_UNIT ( $, .STERADIAN. ) SOLID_ANGLE_UNIT ( ) );
#75 = DIRECTION ( 'NONE',  ( -0.0000000000000000000, -0.0000000000000000000, -1.000000000000000000 ) ) ;
#76 = PLANE ( 'NONE',  #12 ) ;
#77 = CARTESIAN_POINT ( 'NONE',  ( -20.99999999999999600, -10.25000000000000200, 6.000000000000000000 ) ) ;
#78 = CARTESIAN_POINT ( 'NONE',  ( 21.00000000000000400, 10.24999999999999800, 0.0000000000000000000 ) ) ;
#79 = VERTEX_POINT ( 'NONE', #157 ) ;
#80 = DIRECTION ( 'NONE',  ( 0.0000000000000000000, 0.0000000000000000000, 1.000000000000000000 ) ) ;
#81 = STYLED_ITEM ( 'NONE', ( #93 ), #82 ) ;
#82 = ADVANCED_BREP_SHAPE_REPRESENTATION ( '044025100', ( #84, #124 ), #137 ) ;
#83 = COLOUR_RGB ( '',0.7921568627450980000, 0.8196078431372548800, 0.9333333333333333500 ) ;
#84 = MANIFOLD_SOLID_BREP ( 'Aufsatz-Linear austragen1', #64 ) ;
#85 = UNCERTAINTY_MEASURE_WITH_UNIT (LENGTH_MEASURE( 1.000000000000000100E-005 ), #92, 'distance_accuracy_value', 'NONE');
#86 = DIRECTION ( 'NONE',  ( -1.000000000000000000, 0.0000000000000000000, 0.0000000000000000000 ) ) ;
#87 = SHAPE_DEFINITION_REPRESENTATION ( #70, #82 ) ;
#88 = FACE_OUTER_BOUND ( 'NONE', #160, .T. ) ;
#89 = LINE ( 'NONE', #28, #119 ) ;
#90 = ADVANCED_FACE ( 'NONE', ( #201 ), #34, .F. ) ;
#91 =( NAMED_UNIT ( * ) SI_UNIT ( $, .STERADIAN. ) SOLID_ANGLE_UNIT ( ) );
#92 =( LENGTH_UNIT ( ) NAMED_UNIT ( * ) SI_UNIT ( .MILLI., .METRE. ) );
#93 = PRESENTATION_STYLE_ASSIGNMENT (( #194 ) ) ;
#94 = DIRECTION ( 'NONE',  ( -0.0000000000000000000, -0.0000000000000000000, -1.000000000000000000 ) ) ;
#95 = ORIENTED_EDGE ( 'NONE', *, *, #5, .F. ) ;
#96 = CARTESIAN_POINT ( 'NONE',  ( -20.99999999999999600, 10.24999999999999800, 6.000000000000000000 ) ) ;
#97 = ORIENTED_EDGE ( 'NONE', *, *, #98, .T. ) ;
#98 = EDGE_CURVE ( 'NONE', #79, #127, #48, .T. ) ;
#99 = CARTESIAN_POINT ( 'NONE',  ( -20.99999999999999600, 10.24999999999999800, 0.0000000000000000000 ) ) ;
#100 = ORIENTED_EDGE ( 'NONE', *, *, #98, .F. ) ;
#101 = ORIENTED_EDGE ( 'NONE', *, *, #166, .T. ) ;
#102 = ORIENTED_EDGE ( 'NONE', *, *, #23, .T. ) ;
#103 = VECTOR ( 'NONE', #189, 1000.000000000000000 ) ;
#104 = STYLED_ITEM ( 'NONE', ( #199 ), #84 ) ;
#105 = ORIENTED_EDGE ( 'NONE', *, *, #159, .T. ) ;
#106 = VERTEX_POINT ( 'NONE', #131 ) ;
#107 = EDGE_CURVE ( 'NONE', #27, #106, #1, .T. ) ;
#108 =( GEOMETRIC_REPRESENTATION_CONTEXT ( 3 ) GLOBAL_UNCERTAINTY_ASSIGNED_CONTEXT ( ( #113 ) ) GLOBAL_UNIT_ASSIGNED_CONTEXT ( ( #198, #120, #190 ) ) REPRESENTATION_CONTEXT ( 'NONE', 'WORKASPACE' ) );
#109 = VECTOR ( 'NONE', #187, 1000.000000000000000 ) ;
#110 = ADVANCED_FACE ( 'NONE', ( #4 ), #170, .F. ) ;
#111 =( LENGTH_UNIT ( ) NAMED_UNIT ( * ) SI_UNIT ( .MILLI., .METRE. ) );
#112 = CARTESIAN_POINT ( 'NONE',  ( -20.99999999999999600, 10.24999999999999800, 6.000000000000000000 ) ) ;
#113 = UNCERTAINTY_MEASURE_WITH_UNIT (LENGTH_MEASURE( 1.000000000000000100E-005 ), #198, 'distance_accuracy_value', 'NONE');
#114 = AXIS2_PLACEMENT_3D ( 'NONE', #171, #63, #156 ) ;
#115 = CARTESIAN_POINT ( 'NONE',  ( 21.00000000000000400, 10.24999999999999800, 6.000000000000000000 ) ) ;
#116 = LINE ( 'NONE', #112, #109 ) ;
#117 = CARTESIAN_POINT ( 'NONE',  ( -20.99999999999999600, -10.25000000000000200, 0.0000000000000000000 ) ) ;
#118 = PLANE ( 'NONE',  #68 ) ;
#119 = VECTOR ( 'NONE', #75, 1000.000000000000000 ) ;
#120 =( NAMED_UNIT ( * ) PLANE_ANGLE_UNIT ( ) SI_UNIT ( $, .RADIAN. ) );
#121 = SURFACE_STYLE_FILL_AREA ( #7 ) ;
#122 = ORIENTED_EDGE ( 'NONE', *, *, #151, .F. ) ;
#123 = PRESENTATION_LAYER_ASSIGNMENT (  '', '', ( #81 ) ) ;
#124 = AXIS2_PLACEMENT_3D ( 'NONE', #58, #73, #165 ) ;
#125 = VECTOR ( 'NONE', #181, 1000.000000000000000 ) ;
#126 = DIRECTION ( 'NONE',  ( 0.0000000000000000000, -0.0000000000000000000, -1.000000000000000000 ) ) ;
#127 = VERTEX_POINT ( 'NONE', #96 ) ;
#128 = VECTOR ( 'NONE', #94, 1000.000000000000000 ) ;
#129 = SURFACE_SIDE_STYLE ('',( #121 ) ) ;
#130 = CARTESIAN_POINT ( 'NONE',  ( 0.0000000000000000000, 0.0000000000000000000, 6.000000000000000000 ) ) ;
#131 = CARTESIAN_POINT ( 'NONE',  ( 21.00000000000000400, -10.25000000000000200, 0.0000000000000000000 ) ) ;
#132 = SURFACE_STYLE_USAGE ( .BOTH. , #11 ) ;
#133 = PRODUCT_DEFINITION_FORMATION_WITH_SPECIFIED_SOURCE ( 'ANY', '', #193, .NOT_KNOWN. ) ;
#134 = PRODUCT_RELATED_PRODUCT_CATEGORY ( 'part', '', ( #193 ) ) ;
#135 = VECTOR ( 'NONE', #180, 1000.000000000000000 ) ;
#136 = VECTOR ( 'NONE', #37, 1000.000000000000000 ) ;
#137 =( GEOMETRIC_REPRESENTATION_CONTEXT ( 3 ) GLOBAL_UNCERTAINTY_ASSIGNED_CONTEXT ( ( #85 ) ) GLOBAL_UNIT_ASSIGNED_CONTEXT ( ( #92, #177, #74 ) ) REPRESENTATION_CONTEXT ( 'NONE', 'WORKASPACE' ) );
#138 = LINE ( 'NONE', #188, #128 ) ;
#139 = FILL_AREA_STYLE_COLOUR ( '', #9 ) ;
#140 = EDGE_CURVE ( 'NONE', #162, #61, #2, .T. ) ;
#141 = PRESENTATION_LAYER_ASSIGNMENT (  '', '', ( #104 ) ) ;
#142 = DIRECTION ( 'NONE',  ( 1.000000000000000000, 0.0000000000000000000, 0.0000000000000000000 ) ) ;
#143 = DIRECTION ( 'NONE',  ( 1.000000000000000000, 0.0000000000000000000, -0.0000000000000000000 ) ) ;
#144 = DIRECTION ( 'NONE',  ( -0.0000000000000000000, 1.000000000000000000, -0.0000000000000000000 ) ) ;
#145 = ORIENTED_EDGE ( 'NONE', *, *, #168, .F. ) ;
#146 = CARTESIAN_POINT ( 'NONE',  ( 21.00000000000000400, 10.24999999999999800, 0.0000000000000000000 ) ) ;
#147 = FILL_AREA_STYLE ('',( #72 ) ) ;
#148 = DIRECTION ( 'NONE',  ( -1.000000000000000000, -0.0000000000000000000, -0.0000000000000000000 ) ) ;
#149 = LINE ( 'NONE', #158, #62 ) ;
#150 = FACE_OUTER_BOUND ( 'NONE', #41, .T. ) ;
#151 = EDGE_CURVE ( 'NONE', #61, #79, #195, .T. ) ;
#152 = APPLICATION_CONTEXT ( 'automotive_design' ) ;
#153 = UNCERTAINTY_MEASURE_WITH_UNIT (LENGTH_MEASURE( 1.000000000000000100E-005 ), #111, 'distance_accuracy_value', 'NONE');
#154 = PLANE ( 'NONE',  #173 ) ;
#155 = DIRECTION ( 'NONE',  ( 0.0000000000000000000, -0.0000000000000000000, 1.000000000000000000 ) ) ;
#156 = DIRECTION ( 'NONE',  ( 1.000000000000000000, 0.0000000000000000000, 0.0000000000000000000 ) ) ;
#157 = CARTESIAN_POINT ( 'NONE',  ( 21.00000000000000400, 10.24999999999999800, 6.000000000000000000 ) ) ;
#158 = CARTESIAN_POINT ( 'NONE',  ( 21.00000000000000400, -10.25000000000000200, 6.000000000000000000 ) ) ;
#159 = EDGE_CURVE ( 'NONE', #127, #162, #175, .T. ) ;
#160 = EDGE_LOOP ( 'NONE', ( #26, #145, #53, #30 ) ) ;
#161 = CARTESIAN_POINT ( 'NONE',  ( 21.00000000000000400, 10.24999999999999800, 6.000000000000000000 ) ) ;
#162 = VERTEX_POINT ( 'NONE', #196 ) ;
#163 =( GEOMETRIC_REPRESENTATION_CONTEXT ( 3 ) GLOBAL_UNCERTAINTY_ASSIGNED_CONTEXT ( ( #153 ) ) GLOBAL_UNIT_ASSIGNED_CONTEXT ( ( #111, #185, #91 ) ) REPRESENTATION_CONTEXT ( 'NONE', 'WORKASPACE' ) );
#164 = ADVANCED_FACE ( 'NONE', ( #88 ), #76, .F. ) ;
#165 = DIRECTION ( 'NONE',  ( 1.000000000000000000, 0.0000000000000000000, 0.0000000000000000000 ) ) ;
#166 = EDGE_CURVE ( 'NONE', #79, #66, #138, .T. ) ;
#167 = CARTESIAN_POINT ( 'NONE',  ( -20.99999999999999600, 10.24999999999999800, 0.0000000000000000000 ) ) ;
#168 = EDGE_CURVE ( 'NONE', #162, #27, #89, .T. ) ;
#169 = DIRECTION ( 'NONE',  ( 0.0000000000000000000, -1.000000000000000000, 0.0000000000000000000 ) ) ;
#170 = PLANE ( 'NONE',  #71 ) ;
#171 = CARTESIAN_POINT ( 'NONE',  ( 0.0000000000000000000, 0.0000000000000000000, 0.0000000000000000000 ) ) ;
#172 = VECTOR ( 'NONE', #169, 1000.000000000000000 ) ;
#173 = AXIS2_PLACEMENT_3D ( 'NONE', #130, #25, #142 ) ;
#174 = ORIENTED_EDGE ( 'NONE', *, *, #140, .T. ) ;
#175 = LINE ( 'NONE', #178, #172 ) ;
#176 = ADVANCED_FACE ( 'NONE', ( #150 ), #154, .T. ) ;
#177 =( NAMED_UNIT ( * ) PLANE_ANGLE_UNIT ( ) SI_UNIT ( $, .RADIAN. ) );
#178 = CARTESIAN_POINT ( 'NONE',  ( -20.99999999999999600, 10.24999999999999800, 6.000000000000000000 ) ) ;
#179 = MECHANICAL_DESIGN_GEOMETRIC_PRESENTATION_REPRESENTATION (  '', ( #81 ), #163 ) ;
#180 = DIRECTION ( 'NONE',  ( 1.000000000000000000, 0.0000000000000000000, 0.0000000000000000000 ) ) ;
#181 = DIRECTION ( 'NONE',  ( 1.000000000000000000, 0.0000000000000000000, 0.0000000000000000000 ) ) ;
#182 = CARTESIAN_POINT ( 'NONE',  ( 21.00000000000000400, -10.25000000000000200, 6.000000000000000000 ) ) ;
#183 = CARTESIAN_POINT ( 'NONE',  ( -20.99999999999999600, 10.24999999999999800, 0.0000000000000000000 ) ) ;
#184 = AXIS2_PLACEMENT_3D ( 'NONE', #161, #86, #80 ) ;
#185 =( NAMED_UNIT ( * ) PLANE_ANGLE_UNIT ( ) SI_UNIT ( $, .RADIAN. ) );
#186 = CARTESIAN_POINT ( 'NONE',  ( -20.99999999999999600, -10.25000000000000200, 0.0000000000000000000 ) ) ;
#187 = DIRECTION ( 'NONE',  ( -0.0000000000000000000, -0.0000000000000000000, -1.000000000000000000 ) ) ;
#188 = CARTESIAN_POINT ( 'NONE',  ( 21.00000000000000400, 10.24999999999999800, 6.000000000000000000 ) ) ;
#189 = DIRECTION ( 'NONE',  ( -0.0000000000000000000, 1.000000000000000000, -0.0000000000000000000 ) ) ;
#190 =( NAMED_UNIT ( * ) SI_UNIT ( $, .STERADIAN. ) SOLID_ANGLE_UNIT ( ) );
#191 = FACE_OUTER_BOUND ( 'NONE', #202, .T. ) ;
#192 = PRODUCT_DEFINITION_CONTEXT ( 'detailed design', #152, 'design' ) ;
#193 = PRODUCT ( '044025100', '044025100', '', ( #52 ) ) ;
#194 = SURFACE_STYLE_USAGE ( .BOTH. , #129 ) ;
#195 = LINE ( 'NONE', #115, #16 ) ;
#196 = CARTESIAN_POINT ( 'NONE',  ( -20.99999999999999600, -10.25000000000000200, 6.000000000000000000 ) ) ;
#197 = CARTESIAN_POINT ( 'NONE',  ( -20.99999999999999600, 10.24999999999999800, 6.000000000000000000 ) ) ;
#198 =( LENGTH_UNIT ( ) NAMED_UNIT ( * ) SI_UNIT ( .MILLI., .METRE. ) );
#199 = PRESENTATION_STYLE_ASSIGNMENT (( #132 ) ) ;
#200 = EDGE_CURVE ( 'NONE', #127, #50, #116, .T. ) ;
#201 = FACE_OUTER_BOUND ( 'NONE', #18, .T. ) ;
#202 = EDGE_LOOP ( 'NONE', ( #102, #56, #100, #101 ) ) ;
ENDSEC;
END-ISO-10303-21;
