ISO-10303-21;
HEADER;
FILE_DESCRIPTION (( 'STEP AP214' ),
    '1' );
FILE_NAME ('Teil1.STEP',
    '2018-08-09T13:35:37',
    ( '' ),
    ( '' ),
    'SwSTEP 2.0',
    'SolidWorks 2017',
    '' );
FILE_SCHEMA (( 'AUTOMOTIVE_DESIGN' ));
ENDSEC;

DATA;
#1 = CARTESIAN_POINT ( 'NONE',  ( -19.75000000000001100, 11.24999999999999800, 0.0000000000000000000 ) ) ;
#2 = EDGE_CURVE ( 'NONE', #316, #162, #122, .T. ) ;
#3 = DIRECTION ( 'NONE',  ( 1.000000000000000000, 1.341281038126397400E-016, 0.0000000000000000000 ) ) ;
#4 = FACE_OUTER_BOUND ( 'NONE', #92, .T. ) ;
#5 = CARTESIAN_POINT ( 'NONE',  ( -19.75000000000000700, -11.25000000000000400, 0.0000000000000000000 ) ) ;
#6 = CARTESIAN_POINT ( 'NONE',  ( 19.39999999999999500, 11.00000000000000400, 5.599999999999999600 ) ) ;
#7 = DIRECTION ( 'NONE',  ( -3.083952846180990800E-016, 1.000000000000000000, -0.0000000000000000000 ) ) ;
#8 = DIRECTION ( 'NONE',  ( -0.0000000000000000000, 0.0000000000000000000, 1.000000000000000000 ) ) ;
#9 = CARTESIAN_POINT ( 'NONE',  ( -19.40000000000000200, -11.00000000000000400, 5.599999999999999600 ) ) ;
#10 = PRODUCT ( 'Teil1', 'Teil1', '', ( #174 ) ) ;
#11 =( NAMED_UNIT ( * ) PLANE_ANGLE_UNIT ( ) SI_UNIT ( $, .RADIAN. ) );
#12 = SURFACE_STYLE_FILL_AREA ( #146 ) ;
#13 = EDGE_CURVE ( 'NONE', #85, #29, #198, .T. ) ;
#14 = ORIENTED_EDGE ( 'NONE', *, *, #31, .T. ) ;
#15 = EDGE_CURVE ( 'NONE', #344, #266, #215, .T. ) ;
#16 = DIRECTION ( 'NONE',  ( -1.000000000000000000, -1.341281038126397400E-016, 0.0000000000000000000 ) ) ;
#17 = LINE ( 'NONE', #287, #26 ) ;
#18 = VERTEX_POINT ( 'NONE', #263 ) ;
#19 = SURFACE_SIDE_STYLE ('',( #12 ) ) ;
#20 = PRESENTATION_STYLE_ASSIGNMENT (( #164 ) ) ;
#21 = ORIENTED_EDGE ( 'NONE', *, *, #2, .T. ) ;
#22 = CARTESIAN_POINT ( 'NONE',  ( 19.74999999999999600, -11.25000000000000400, 5.599999999999999600 ) ) ;
#23 = ADVANCED_FACE ( 'NONE', ( #100 ), #102, .F. ) ;
#24 = DIRECTION ( 'NONE',  ( -1.000000000000000000, -0.0000000000000000000, -0.0000000000000000000 ) ) ;
#25 = EDGE_LOOP ( 'NONE', ( #280, #152, #39, #14 ) ) ;
#26 = VECTOR ( 'NONE', #286, 1000.000000000000000 ) ;
#27 = EDGE_CURVE ( 'NONE', #207, #230, #70, .T. ) ;
#28 = PLANE ( 'NONE',  #34 ) ;
#29 = VERTEX_POINT ( 'NONE', #236 ) ;
#30 = CARTESIAN_POINT ( 'NONE',  ( -19.75000000000000700, -11.25000000000000400, 0.0000000000000000000 ) ) ;
#31 = EDGE_CURVE ( 'NONE', #85, #308, #208, .T. ) ;
#32 = FACE_OUTER_BOUND ( 'NONE', #205, .T. ) ;
#33 = CARTESIAN_POINT ( 'NONE',  ( -19.75000000000000700, -11.25000000000000400, 5.599999999999999600 ) ) ;
#34 = AXIS2_PLACEMENT_3D ( 'NONE', #157, #187, #3 ) ;
#35 = CARTESIAN_POINT ( 'NONE',  ( -19.40000000000000200, -11.00000000000000400, 8.199999999999999300 ) ) ;
#36 = VECTOR ( 'NONE', #60, 1000.000000000000000 ) ;
#37 = ORIENTED_EDGE ( 'NONE', *, *, #229, .F. ) ;
#38 = VECTOR ( 'NONE', #55, 1000.000000000000000 ) ;
#39 = ORIENTED_EDGE ( 'NONE', *, *, #13, .F. ) ;
#40 = ORIENTED_EDGE ( 'NONE', *, *, #319, .T. ) ;
#41 = LINE ( 'NONE', #1, #309 ) ;
#42 = ORIENTED_EDGE ( 'NONE', *, *, #54, .T. ) ;
#43 = LINE ( 'NONE', #317, #250 ) ;
#44 = ORIENTED_EDGE ( 'NONE', *, *, #48, .F. ) ;
#45 = EDGE_CURVE ( 'NONE', #316, #305, #192, .T. ) ;
#46 = CARTESIAN_POINT ( 'NONE',  ( -19.75000000000000700, -11.25000000000000400, 5.599999999999999600 ) ) ;
#47 = ORIENTED_EDGE ( 'NONE', *, *, #27, .F. ) ;
#48 = EDGE_CURVE ( 'NONE', #305, #116, #141, .T. ) ;
#49 = DIRECTION ( 'NONE',  ( 0.0000000000000000000, 1.000000000000000000, 0.0000000000000000000 ) ) ;
#50 = DIRECTION ( 'NONE',  ( 1.000000000000000000, 0.0000000000000000000, 0.0000000000000000000 ) ) ;
#51 = LINE ( 'NONE', #293, #115 ) ;
#52 = CARTESIAN_POINT ( 'NONE',  ( 19.39999999999999500, 11.00000000000000400, 5.599999999999999600 ) ) ;
#53 = CARTESIAN_POINT ( 'NONE',  ( -19.40000000000000200, -11.00000000000000400, 8.199999999999999300 ) ) ;
#54 = EDGE_CURVE ( 'NONE', #29, #256, #212, .T. ) ;
#55 = DIRECTION ( 'NONE',  ( 0.0000000000000000000, 1.000000000000000000, 0.0000000000000000000 ) ) ;
#56 = AXIS2_PLACEMENT_3D ( 'NONE', #268, #291, #131 ) ;
#57 = CARTESIAN_POINT ( 'NONE',  ( -19.75000000000001100, 11.24999999999999800, 5.599999999999999600 ) ) ;
#58 = ORIENTED_EDGE ( 'NONE', *, *, #13, .T. ) ;
#59 = DIRECTION ( 'NONE',  ( 0.0000000000000000000, 1.000000000000000000, 0.0000000000000000000 ) ) ;
#60 = DIRECTION ( 'NONE',  ( -0.0000000000000000000, -0.0000000000000000000, -1.000000000000000000 ) ) ;
#61 = CARTESIAN_POINT ( 'NONE',  ( 19.39999999999999500, -10.99999999999999600, 5.599999999999999600 ) ) ;
#62 = DIRECTION ( 'NONE',  ( -1.788374717501863500E-016, 1.000000000000000000, 0.0000000000000000000 ) ) ;
#63 = DIRECTION ( 'NONE',  ( 0.0000000000000000000, 0.0000000000000000000, 1.000000000000000000 ) ) ;
#64 = VECTOR ( 'NONE', #264, 1000.000000000000000 ) ;
#65 = ORIENTED_EDGE ( 'NONE', *, *, #45, .F. ) ;
#66 = LINE ( 'NONE', #296, #200 ) ;
#67 = EDGE_CURVE ( 'NONE', #116, #104, #41, .T. ) ;
#68 = AXIS2_PLACEMENT_3D ( 'NONE', #106, #213, #206 ) ;
#69 = SHAPE_DEFINITION_REPRESENTATION ( #220, #248 ) ;
#70 = LINE ( 'NONE', #78, #140 ) ;
#71 = VECTOR ( 'NONE', #222, 1000.000000000000000 ) ;
#72 = APPLICATION_PROTOCOL_DEFINITION ( 'draft international standard', 'automotive_design', 1998, #204 ) ;
#73 = STYLED_ITEM ( 'NONE', ( #20 ), #110 ) ;
#74 = ADVANCED_FACE ( 'NONE', ( #169 ), #79, .F. ) ;
#75 = FILL_AREA_STYLE_COLOUR ( '', #96 ) ;
#76 = CARTESIAN_POINT ( 'NONE',  ( -19.40000000000000200, -11.00000000000000400, 8.199999999999999300 ) ) ;
#77 = CARTESIAN_POINT ( 'NONE',  ( 19.39999999999999500, -10.99999999999999600, 5.599999999999999600 ) ) ;
#78 = CARTESIAN_POINT ( 'NONE',  ( 19.39999999999999500, 11.00000000000000400, 8.199999999999999300 ) ) ;
#79 = PLANE ( 'NONE',  #56 ) ;
#80 = COLOUR_RGB ( '',0.7921568627450980000, 0.8196078431372548800, 0.9333333333333333500 ) ;
#81 = CARTESIAN_POINT ( 'NONE',  ( 19.39999999999999500, 11.00000000000000400, 8.199999999999999300 ) ) ;
#82 = PLANE ( 'NONE',  #231 ) ;
#83 =( GEOMETRIC_REPRESENTATION_CONTEXT ( 3 ) GLOBAL_UNCERTAINTY_ASSIGNED_CONTEXT ( ( #290 ) ) GLOBAL_UNIT_ASSIGNED_CONTEXT ( ( #127, #284, #285 ) ) REPRESENTATION_CONTEXT ( 'NONE', 'WORKASPACE' ) );
#84 = PLANE ( 'NONE',  #303 ) ;
#85 = VERTEX_POINT ( 'NONE', #214 ) ;
#86 = DIRECTION ( 'NONE',  ( 0.0000000000000000000, -0.0000000000000000000, 1.000000000000000000 ) ) ;
#87 = ORIENTED_EDGE ( 'NONE', *, *, #329, .T. ) ;
#88 = VECTOR ( 'NONE', #16, 1000.000000000000000 ) ;
#89 = AXIS2_PLACEMENT_3D ( 'NONE', #155, #134, #63 ) ;
#90 = EDGE_LOOP ( 'NONE', ( #242, #117, #87, #40 ) ) ;
#91 = FACE_OUTER_BOUND ( 'NONE', #171, .T. ) ;
#92 = EDGE_LOOP ( 'NONE', ( #334, #37, #184, #203 ) ) ;
#93 = LINE ( 'NONE', #52, #105 ) ;
#94 = ORIENTED_EDGE ( 'NONE', *, *, #252, .T. ) ;
#95 = FILL_AREA_STYLE ('',( #75 ) ) ;
#96 = COLOUR_RGB ( '',0.7921568627450980000, 0.8196078431372548800, 0.9333333333333333500 ) ;
#97 = FILL_AREA_STYLE_COLOUR ( '', #80 ) ;
#98 = AXIS2_PLACEMENT_3D ( 'NONE', #101, #49, #310 ) ;
#99 = ADVANCED_FACE ( 'NONE', ( #32 ), #108, .F. ) ;
#100 = FACE_OUTER_BOUND ( 'NONE', #25, .T. ) ;
#101 = CARTESIAN_POINT ( 'NONE',  ( -19.75000000000000700, -11.25000000000000400, 5.599999999999999600 ) ) ;
#102 = PLANE ( 'NONE',  #143 ) ;
#103 = AXIS2_PLACEMENT_3D ( 'NONE', #259, #282, #341 ) ;
#104 = VERTEX_POINT ( 'NONE', #5 ) ;
#105 = VECTOR ( 'NONE', #235, 1000.000000000000000 ) ;
#106 = CARTESIAN_POINT ( 'NONE',  ( -19.75000000000001100, 11.24999999999999800, 5.599999999999999600 ) ) ;
#107 = ORIENTED_EDGE ( 'NONE', *, *, #329, .F. ) ;
#108 = PLANE ( 'NONE',  #89 ) ;
#109 = EDGE_CURVE ( 'NONE', #29, #18, #304, .T. ) ;
#110 = MANIFOLD_SOLID_BREP ( 'Aufsatz-Linear austragen2', #129 ) ;
#111 = PRESENTATION_LAYER_ASSIGNMENT (  '', '', ( #73 ) ) ;
#112 = CARTESIAN_POINT ( 'NONE',  ( 19.74999999999998900, 11.24999999999999800, 5.599999999999999600 ) ) ;
#113 = PLANE ( 'NONE',  #340 ) ;
#114 = ORIENTED_EDGE ( 'NONE', *, *, #199, .F. ) ;
#115 = VECTOR ( 'NONE', #133, 1000.000000000000000 ) ;
#116 = VERTEX_POINT ( 'NONE', #193 ) ;
#117 = ORIENTED_EDGE ( 'NONE', *, *, #45, .T. ) ;
#118 = UNCERTAINTY_MEASURE_WITH_UNIT (LENGTH_MEASURE( 1.000000000000000100E-005 ), #194, 'distance_accuracy_value', 'NONE');
#119 = LINE ( 'NONE', #269, #314 ) ;
#120 = PRODUCT_DEFINITION ( 'UNKNOWN', '', #139, #326 ) ;
#121 = ORIENTED_EDGE ( 'NONE', *, *, #319, .F. ) ;
#122 = LINE ( 'NONE', #112, #64 ) ;
#123 = VECTOR ( 'NONE', #24, 1000.000000000000000 ) ;
#124 = MECHANICAL_DESIGN_GEOMETRIC_PRESENTATION_REPRESENTATION (  '', ( #73 ), #144 ) ;
#125 = ORIENTED_EDGE ( 'NONE', *, *, #196, .T. ) ;
#126 = APPLICATION_PROTOCOL_DEFINITION ( 'draft international standard', 'automotive_design', 1998, #260 ) ;
#127 =( LENGTH_UNIT ( ) NAMED_UNIT ( * ) SI_UNIT ( .MILLI., .METRE. ) );
#128 = ADVANCED_FACE ( 'NONE', ( #232 ), #159, .F. ) ;
#129 = CLOSED_SHELL ( 'NONE', ( #128, #74, #283, #339, #182, #178, #23, #177, #99, #261, #145 ) ) ;
#130 = DIRECTION ( 'NONE',  ( -0.0000000000000000000, -0.0000000000000000000, -1.000000000000000000 ) ) ;
#131 = DIRECTION ( 'NONE',  ( 0.0000000000000000000, -0.0000000000000000000, -1.000000000000000000 ) ) ;
#132 = FACE_BOUND ( 'NONE', #332, .T. ) ;
#133 = DIRECTION ( 'NONE',  ( -0.0000000000000000000, -0.0000000000000000000, -1.000000000000000000 ) ) ;
#134 = DIRECTION ( 'NONE',  ( -1.000000000000000000, 0.0000000000000000000, 0.0000000000000000000 ) ) ;
#135 = CARTESIAN_POINT ( 'NONE',  ( 0.0000000000000000000, 0.0000000000000000000, 5.599999999999999600 ) ) ;
#136 = STYLED_ITEM ( 'NONE', ( #224 ), #248 ) ;
#137 = CARTESIAN_POINT ( 'NONE',  ( 19.74999999999998900, 11.24999999999999800, 0.0000000000000000000 ) ) ;
#138 = DIRECTION ( 'NONE',  ( 3.083952846180990800E-016, -1.000000000000000000, 0.0000000000000000000 ) ) ;
#139 = PRODUCT_DEFINITION_FORMATION_WITH_SPECIFIED_SOURCE ( 'ANY', '', #10, .NOT_KNOWN. ) ;
#140 = VECTOR ( 'NONE', #288, 1000.000000000000000 ) ;
#141 = LINE ( 'NONE', #315, #323 ) ;
#142 = LINE ( 'NONE', #9, #71 ) ;
#143 = AXIS2_PLACEMENT_3D ( 'NONE', #76, #149, #343 ) ;
#144 =( GEOMETRIC_REPRESENTATION_CONTEXT ( 3 ) GLOBAL_UNCERTAINTY_ASSIGNED_CONTEXT ( ( #118 ) ) GLOBAL_UNIT_ASSIGNED_CONTEXT ( ( #194, #11, #318 ) ) REPRESENTATION_CONTEXT ( 'NONE', 'WORKASPACE' ) );
#145 = ADVANCED_FACE ( 'NONE', ( #91 ), #82, .T. ) ;
#146 = FILL_AREA_STYLE ('',( #97 ) ) ;
#147 = PRESENTATION_LAYER_ASSIGNMENT (  '', '', ( #136 ) ) ;
#148 = ORIENTED_EDGE ( 'NONE', *, *, #31, .F. ) ;
#149 = DIRECTION ( 'NONE',  ( 1.000000000000000000, 0.0000000000000000000, 0.0000000000000000000 ) ) ;
#150 = PRODUCT_RELATED_PRODUCT_CATEGORY ( 'part', '', ( #10 ) ) ;
#151 = CARTESIAN_POINT ( 'NONE',  ( 19.39999999999999500, 11.00000000000000400, 8.199999999999999300 ) ) ;
#152 = ORIENTED_EDGE ( 'NONE', *, *, #109, .F. ) ;
#153 = LINE ( 'NONE', #46, #292 ) ;
#154 = CARTESIAN_POINT ( 'NONE',  ( 19.39999999999999500, -10.99999999999999600, 8.199999999999999300 ) ) ;
#155 = CARTESIAN_POINT ( 'NONE',  ( 19.39999999999999500, -10.99999999999999600, 8.199999999999999300 ) ) ;
#156 = EDGE_CURVE ( 'NONE', #308, #18, #142, .T. ) ;
#157 = CARTESIAN_POINT ( 'NONE',  ( 19.39999999999999500, 11.00000000000000400, 8.199999999999999300 ) ) ;
#158 = ORIENTED_EDGE ( 'NONE', *, *, #302, .T. ) ;
#159 = PLANE ( 'NONE',  #202 ) ;
#160 = VECTOR ( 'NONE', #257, 1000.000000000000000 ) ;
#161 = DIRECTION ( 'NONE',  ( -0.0000000000000000000, 0.0000000000000000000, 1.000000000000000000 ) ) ;
#162 = VERTEX_POINT ( 'NONE', #137 ) ;
#163 = CARTESIAN_POINT ( 'NONE',  ( 19.74999999999998900, 11.24999999999999800, 5.599999999999999600 ) ) ;
#164 = SURFACE_STYLE_USAGE ( .BOTH. , #176 ) ;
#165 = ORIENTED_EDGE ( 'NONE', *, *, #306, .T. ) ;
#166 = LINE ( 'NONE', #151, #88 ) ;
#167 = UNCERTAINTY_MEASURE_WITH_UNIT (LENGTH_MEASURE( 1.000000000000000100E-005 ), #337, 'distance_accuracy_value', 'NONE');
#168 = VERTEX_POINT ( 'NONE', #297 ) ;
#169 = FACE_OUTER_BOUND ( 'NONE', #237, .T. ) ;
#170 = MECHANICAL_DESIGN_GEOMETRIC_PRESENTATION_REPRESENTATION (  '', ( #136 ), #191 ) ;
#171 = EDGE_LOOP ( 'NONE', ( #58, #42, #258, #165 ) ) ;
#172 = LINE ( 'NONE', #154, #38 ) ;
#173 = ORIENTED_EDGE ( 'NONE', *, *, #67, .T. ) ;
#174 = PRODUCT_CONTEXT ( 'NONE', #260, 'mechanical' ) ;
#175 = SURFACE_STYLE_USAGE ( .BOTH. , #19 ) ;
#176 = SURFACE_SIDE_STYLE ('',( #244 ) ) ;
#177 = ADVANCED_FACE ( 'NONE', ( #216 ), #324, .F. ) ;
#178 = ADVANCED_FACE ( 'NONE', ( #4 ), #84, .F. ) ;
#179 = CARTESIAN_POINT ( 'NONE',  ( -19.75000000000001100, 11.24999999999999800, 5.599999999999999600 ) ) ;
#180 = CARTESIAN_POINT ( 'NONE',  ( -19.40000000000000200, 10.99999999999999800, 8.199999999999999300 ) ) ;
#181 = EDGE_LOOP ( 'NONE', ( #328, #148, #299, #186 ) ) ;
#182 = ADVANCED_FACE ( 'NONE', ( #132, #336 ), #113, .T. ) ;
#183 = FACE_OUTER_BOUND ( 'NONE', #181, .T. ) ;
#184 = ORIENTED_EDGE ( 'NONE', *, *, #67, .F. ) ;
#185 = DIRECTION ( 'NONE',  ( 1.000000000000000000, 1.788374717501863300E-016, -0.0000000000000000000 ) ) ;
#186 = ORIENTED_EDGE ( 'NONE', *, *, #27, .T. ) ;
#187 = DIRECTION ( 'NONE',  ( 1.341281038126397400E-016, -1.000000000000000000, 0.0000000000000000000 ) ) ;
#188 = VERTEX_POINT ( 'NONE', #33 ) ;
#189 = CARTESIAN_POINT ( 'NONE',  ( 19.74999999999998900, 11.24999999999999800, 5.599999999999999600 ) ) ;
#190 = ORIENTED_EDGE ( 'NONE', *, *, #255, .T. ) ;
#191 =( GEOMETRIC_REPRESENTATION_CONTEXT ( 3 ) GLOBAL_UNCERTAINTY_ASSIGNED_CONTEXT ( ( #167 ) ) GLOBAL_UNIT_ASSIGNED_CONTEXT ( ( #337, #228, #311 ) ) REPRESENTATION_CONTEXT ( 'NONE', 'WORKASPACE' ) );
#192 = LINE ( 'NONE', #57, #123 ) ;
#193 = CARTESIAN_POINT ( 'NONE',  ( -19.75000000000001100, 11.24999999999999800, 0.0000000000000000000 ) ) ;
#194 =( LENGTH_UNIT ( ) NAMED_UNIT ( * ) SI_UNIT ( .MILLI., .METRE. ) );
#195 = VECTOR ( 'NONE', #59, 1000.000000000000000 ) ;
#196 = EDGE_CURVE ( 'NONE', #266, #162, #66, .T. ) ;
#197 = ORIENTED_EDGE ( 'NONE', *, *, #255, .F. ) ;
#198 = LINE ( 'NONE', #53, #335 ) ;
#199 = EDGE_CURVE ( 'NONE', #344, #316, #270, .T. ) ;
#200 = VECTOR ( 'NONE', #7, 1000.000000000000000 ) ;
#201 = ORIENTED_EDGE ( 'NONE', *, *, #219, .F. ) ;
#202 = AXIS2_PLACEMENT_3D ( 'NONE', #163, #325, #138 ) ;
#203 = ORIENTED_EDGE ( 'NONE', *, *, #277, .F. ) ;
#204 = APPLICATION_CONTEXT ( 'automotive_design' ) ;
#205 = EDGE_LOOP ( 'NONE', ( #301, #47, #223, #190 ) ) ;
#206 = DIRECTION ( 'NONE',  ( -1.541976423090495400E-016, 1.000000000000000000, 0.0000000000000000000 ) ) ;
#207 = VERTEX_POINT ( 'NONE', #81 ) ;
#208 = LINE ( 'NONE', #180, #36 ) ;
#209 = CARTESIAN_POINT ( 'NONE',  ( 0.0000000000000000000, 0.0000000000000000000, 8.199999999999999300 ) ) ;
#210 = DIRECTION ( 'NONE',  ( 1.000000000000000000, 1.788374717501863300E-016, -0.0000000000000000000 ) ) ;
#211 = DIRECTION ( 'NONE',  ( -0.0000000000000000000, -1.000000000000000000, -0.0000000000000000000 ) ) ;
#212 = LINE ( 'NONE', #218, #265 ) ;
#213 = DIRECTION ( 'NONE',  ( 1.000000000000000000, 1.541976423090495400E-016, -0.0000000000000000000 ) ) ;
#214 = CARTESIAN_POINT ( 'NONE',  ( -19.40000000000000200, 10.99999999999999800, 8.199999999999999300 ) ) ;
#215 = LINE ( 'NONE', #22, #253 ) ;
#216 = FACE_OUTER_BOUND ( 'NONE', #333, .T. ) ;
#217 = CARTESIAN_POINT ( 'NONE',  ( 19.74999999999999600, -11.25000000000000400, 0.0000000000000000000 ) ) ;
#218 = CARTESIAN_POINT ( 'NONE',  ( 19.39999999999999500, -10.99999999999999600, 8.199999999999999300 ) ) ;
#219 = EDGE_CURVE ( 'NONE', #168, #230, #331, .T. ) ;
#220 = PRODUCT_DEFINITION_SHAPE ( 'NONE', 'NONE',  #120 ) ;
#221 = DIRECTION ( 'NONE',  ( -1.000000000000000000, -1.788374717501863500E-016, 0.0000000000000000000 ) ) ;
#222 = DIRECTION ( 'NONE',  ( -0.0000000000000000000, -1.000000000000000000, -0.0000000000000000000 ) ) ;
#223 = ORIENTED_EDGE ( 'NONE', *, *, #272, .F. ) ;
#224 = PRESENTATION_STYLE_ASSIGNMENT (( #175 ) ) ;
#225 = ORIENTED_EDGE ( 'NONE', *, *, #48, .T. ) ;
#226 = ORIENTED_EDGE ( 'NONE', *, *, #2, .F. ) ;
#227 = FACE_OUTER_BOUND ( 'NONE', #330, .T. ) ;
#228 =( NAMED_UNIT ( * ) PLANE_ANGLE_UNIT ( ) SI_UNIT ( $, .RADIAN. ) );
#229 = EDGE_CURVE ( 'NONE', #104, #266, #327, .T. ) ;
#230 = VERTEX_POINT ( 'NONE', #6 ) ;
#231 = AXIS2_PLACEMENT_3D ( 'NONE', #209, #86, #247 ) ;
#232 = FACE_OUTER_BOUND ( 'NONE', #240, .T. ) ;
#233 = EDGE_LOOP ( 'NONE', ( #173, #294, #107, #225 ) ) ;
#234 = DIRECTION ( 'NONE',  ( -0.0000000000000000000, -0.0000000000000000000, -1.000000000000000000 ) ) ;
#235 = DIRECTION ( 'NONE',  ( -1.000000000000000000, -1.341281038126397400E-016, 0.0000000000000000000 ) ) ;
#236 = CARTESIAN_POINT ( 'NONE',  ( -19.40000000000000200, -11.00000000000000400, 8.199999999999999300 ) ) ;
#237 = EDGE_LOOP ( 'NONE', ( #338, #44, #65, #21 ) ) ;
#238 = LINE ( 'NONE', #77, #300 ) ;
#239 = PLANE ( 'NONE',  #68 ) ;
#240 = EDGE_LOOP ( 'NONE', ( #125, #226, #114, #251 ) ) ;
#241 = DIRECTION ( 'NONE',  ( -0.0000000000000000000, -0.0000000000000000000, -1.000000000000000000 ) ) ;
#242 = ORIENTED_EDGE ( 'NONE', *, *, #199, .T. ) ;
#243 = DIRECTION ( 'NONE',  ( 1.541976423090495400E-016, -1.000000000000000000, 0.0000000000000000000 ) ) ;
#244 = SURFACE_STYLE_FILL_AREA ( #95 ) ;
#245 = DIRECTION ( 'NONE',  ( 1.000000000000000000, 0.0000000000000000000, 0.0000000000000000000 ) ) ;
#246 = CARTESIAN_POINT ( 'NONE',  ( 0.0000000000000000000, 0.0000000000000000000, 0.0000000000000000000 ) ) ;
#247 = DIRECTION ( 'NONE',  ( 1.000000000000000000, 0.0000000000000000000, -0.0000000000000000000 ) ) ;
#248 = ADVANCED_BREP_SHAPE_REPRESENTATION ( 'Teil1', ( #110, #103 ), #83 ) ;
#249 = ORIENTED_EDGE ( 'NONE', *, *, #302, .F. ) ;
#250 = VECTOR ( 'NONE', #267, 1000.000000000000000 ) ;
#251 = ORIENTED_EDGE ( 'NONE', *, *, #15, .T. ) ;
#252 = EDGE_CURVE ( 'NONE', #188, #104, #51, .T. ) ;
#253 = VECTOR ( 'NONE', #234, 1000.000000000000000 ) ;
#254 = VECTOR ( 'NONE', #273, 1000.000000000000000 ) ;
#255 = EDGE_CURVE ( 'NONE', #256, #168, #119, .T. ) ;
#256 = VERTEX_POINT ( 'NONE', #295 ) ;
#257 = DIRECTION ( 'NONE',  ( -0.0000000000000000000, -0.0000000000000000000, -1.000000000000000000 ) ) ;
#258 = ORIENTED_EDGE ( 'NONE', *, *, #272, .T. ) ;
#259 = CARTESIAN_POINT ( 'NONE',  ( 0.0000000000000000000, 0.0000000000000000000, 0.0000000000000000000 ) ) ;
#260 = APPLICATION_CONTEXT ( 'automotive_design' ) ;
#261 = ADVANCED_FACE ( 'NONE', ( #183 ), #28, .F. ) ;
#262 = CARTESIAN_POINT ( 'NONE',  ( 19.74999999999999600, -11.25000000000000400, 5.599999999999999600 ) ) ;
#263 = CARTESIAN_POINT ( 'NONE',  ( -19.40000000000000200, -11.00000000000000400, 5.599999999999999600 ) ) ;
#264 = DIRECTION ( 'NONE',  ( -0.0000000000000000000, -0.0000000000000000000, -1.000000000000000000 ) ) ;
#265 = VECTOR ( 'NONE', #185, 1000.000000000000000 ) ;
#266 = VERTEX_POINT ( 'NONE', #217 ) ;
#267 = DIRECTION ( 'NONE',  ( -1.000000000000000000, -0.0000000000000000000, -0.0000000000000000000 ) ) ;
#268 = CARTESIAN_POINT ( 'NONE',  ( -19.75000000000001100, 11.24999999999999800, 5.599999999999999600 ) ) ;
#269 = CARTESIAN_POINT ( 'NONE',  ( 19.39999999999999500, -10.99999999999999600, 8.199999999999999300 ) ) ;
#270 = LINE ( 'NONE', #189, #278 ) ;
#271 = ORIENTED_EDGE ( 'NONE', *, *, #109, .T. ) ;
#272 = EDGE_CURVE ( 'NONE', #256, #207, #172, .T. ) ;
#273 = DIRECTION ( 'NONE',  ( 1.000000000000000000, 0.0000000000000000000, 0.0000000000000000000 ) ) ;
#274 = AXIS2_PLACEMENT_3D ( 'NONE', #275, #62, #221 ) ;
#275 = CARTESIAN_POINT ( 'NONE',  ( 19.39999999999999500, -10.99999999999999600, 8.199999999999999300 ) ) ;
#276 = ORIENTED_EDGE ( 'NONE', *, *, #289, .F. ) ;
#277 = EDGE_CURVE ( 'NONE', #162, #116, #43, .T. ) ;
#278 = VECTOR ( 'NONE', #321, 1000.000000000000000 ) ;
#279 = ORIENTED_EDGE ( 'NONE', *, *, #229, .T. ) ;
#280 = ORIENTED_EDGE ( 'NONE', *, *, #156, .T. ) ;
#281 = CARTESIAN_POINT ( 'NONE',  ( 19.74999999999998900, 11.24999999999999800, 5.599999999999999600 ) ) ;
#282 = DIRECTION ( 'NONE',  ( 0.0000000000000000000, 0.0000000000000000000, 1.000000000000000000 ) ) ;
#283 = ADVANCED_FACE ( 'NONE', ( #307 ), #239, .F. ) ;
#284 =( NAMED_UNIT ( * ) PLANE_ANGLE_UNIT ( ) SI_UNIT ( $, .RADIAN. ) );
#285 =( NAMED_UNIT ( * ) SI_UNIT ( $, .STERADIAN. ) SOLID_ANGLE_UNIT ( ) );
#286 = DIRECTION ( 'NONE',  ( 1.541976423090495400E-016, -1.000000000000000000, 0.0000000000000000000 ) ) ;
#287 = CARTESIAN_POINT ( 'NONE',  ( -19.75000000000001100, 11.24999999999999800, 5.599999999999999600 ) ) ;
#288 = DIRECTION ( 'NONE',  ( -0.0000000000000000000, -0.0000000000000000000, -1.000000000000000000 ) ) ;
#289 = EDGE_CURVE ( 'NONE', #230, #308, #93, .T. ) ;
#290 = UNCERTAINTY_MEASURE_WITH_UNIT (LENGTH_MEASURE( 1.000000000000000100E-005 ), #127, 'distance_accuracy_value', 'NONE');
#291 = DIRECTION ( 'NONE',  ( 0.0000000000000000000, -1.000000000000000000, 0.0000000000000000000 ) ) ;
#292 = VECTOR ( 'NONE', #50, 1000.000000000000000 ) ;
#293 = CARTESIAN_POINT ( 'NONE',  ( -19.75000000000000700, -11.25000000000000400, 5.599999999999999600 ) ) ;
#294 = ORIENTED_EDGE ( 'NONE', *, *, #252, .F. ) ;
#295 = CARTESIAN_POINT ( 'NONE',  ( 19.39999999999999500, -10.99999999999999600, 8.199999999999999300 ) ) ;
#296 = CARTESIAN_POINT ( 'NONE',  ( 19.74999999999998900, 11.24999999999999800, 0.0000000000000000000 ) ) ;
#297 = CARTESIAN_POINT ( 'NONE',  ( 19.39999999999999500, -10.99999999999999600, 5.599999999999999600 ) ) ;
#298 = ORIENTED_EDGE ( 'NONE', *, *, #156, .F. ) ;
#299 = ORIENTED_EDGE ( 'NONE', *, *, #306, .F. ) ;
#300 = VECTOR ( 'NONE', #210, 1000.000000000000000 ) ;
#301 = ORIENTED_EDGE ( 'NONE', *, *, #219, .T. ) ;
#302 = EDGE_CURVE ( 'NONE', #18, #168, #238, .T. ) ;
#303 = AXIS2_PLACEMENT_3D ( 'NONE', #246, #161, #322 ) ;
#304 = LINE ( 'NONE', #35, #160 ) ;
#305 = VERTEX_POINT ( 'NONE', #179 ) ;
#306 = EDGE_CURVE ( 'NONE', #207, #85, #166, .T. ) ;
#307 = FACE_OUTER_BOUND ( 'NONE', #233, .T. ) ;
#308 = VERTEX_POINT ( 'NONE', #312 ) ;
#309 = VECTOR ( 'NONE', #243, 1000.000000000000000 ) ;
#310 = DIRECTION ( 'NONE',  ( 0.0000000000000000000, -0.0000000000000000000, 1.000000000000000000 ) ) ;
#311 =( NAMED_UNIT ( * ) SI_UNIT ( $, .STERADIAN. ) SOLID_ANGLE_UNIT ( ) );
#312 = CARTESIAN_POINT ( 'NONE',  ( -19.40000000000000200, 10.99999999999999800, 5.599999999999999600 ) ) ;
#313 = ORIENTED_EDGE ( 'NONE', *, *, #54, .F. ) ;
#314 = VECTOR ( 'NONE', #241, 1000.000000000000000 ) ;
#315 = CARTESIAN_POINT ( 'NONE',  ( -19.75000000000001100, 11.24999999999999800, 5.599999999999999600 ) ) ;
#316 = VERTEX_POINT ( 'NONE', #281 ) ;
#317 = CARTESIAN_POINT ( 'NONE',  ( -19.75000000000001100, 11.24999999999999800, 0.0000000000000000000 ) ) ;
#318 =( NAMED_UNIT ( * ) SI_UNIT ( $, .STERADIAN. ) SOLID_ANGLE_UNIT ( ) );
#319 = EDGE_CURVE ( 'NONE', #188, #344, #153, .T. ) ;
#320 = ORIENTED_EDGE ( 'NONE', *, *, #15, .F. ) ;
#321 = DIRECTION ( 'NONE',  ( -3.083952846180990800E-016, 1.000000000000000000, -0.0000000000000000000 ) ) ;
#322 = DIRECTION ( 'NONE',  ( 1.000000000000000000, 0.0000000000000000000, 0.0000000000000000000 ) ) ;
#323 = VECTOR ( 'NONE', #130, 1000.000000000000000 ) ;
#324 = PLANE ( 'NONE',  #274 ) ;
#325 = DIRECTION ( 'NONE',  ( -1.000000000000000000, -3.083952846180990800E-016, 0.0000000000000000000 ) ) ;
#326 = PRODUCT_DEFINITION_CONTEXT ( 'detailed design', #204, 'design' ) ;
#327 = LINE ( 'NONE', #30, #254 ) ;
#328 = ORIENTED_EDGE ( 'NONE', *, *, #289, .T. ) ;
#329 = EDGE_CURVE ( 'NONE', #305, #188, #17, .T. ) ;
#330 = EDGE_LOOP ( 'NONE', ( #279, #320, #121, #94 ) ) ;
#331 = LINE ( 'NONE', #61, #195 ) ;
#332 = EDGE_LOOP ( 'NONE', ( #298, #276, #201, #249 ) ) ;
#333 = EDGE_LOOP ( 'NONE', ( #158, #197, #313, #271 ) ) ;
#334 = ORIENTED_EDGE ( 'NONE', *, *, #196, .F. ) ;
#335 = VECTOR ( 'NONE', #211, 1000.000000000000000 ) ;
#336 = FACE_OUTER_BOUND ( 'NONE', #90, .T. ) ;
#337 =( LENGTH_UNIT ( ) NAMED_UNIT ( * ) SI_UNIT ( .MILLI., .METRE. ) );
#338 = ORIENTED_EDGE ( 'NONE', *, *, #277, .T. ) ;
#339 = ADVANCED_FACE ( 'NONE', ( #227 ), #342, .F. ) ;
#340 = AXIS2_PLACEMENT_3D ( 'NONE', #135, #8, #245 ) ;
#341 = DIRECTION ( 'NONE',  ( 1.000000000000000000, 0.0000000000000000000, 0.0000000000000000000 ) ) ;
#342 = PLANE ( 'NONE',  #98 ) ;
#343 = DIRECTION ( 'NONE',  ( 0.0000000000000000000, 0.0000000000000000000, -1.000000000000000000 ) ) ;
#344 = VERTEX_POINT ( 'NONE', #262 ) ;
ENDSEC;
END-ISO-10303-21;
