ISO-10303-21;
HEADER;
FILE_DESCRIPTION (( 'STEP AP214' ),
    '1' );
FILE_NAME ('061525100d.STEP',
    '2018-09-04T07:46:25',
    ( 'admin' ),
    ( 'Hewlett-Packard Company' ),
    'SwSTEP 2.0',
    'SolidWorks 2017',
    '' );
FILE_SCHEMA (( 'AUTOMOTIVE_DESIGN' ));
ENDSEC;

DATA;
#1 = CARTESIAN_POINT ( 'NONE',  ( -9.999999999999998200, -14.99999999999999500, 3.000000000000000000 ) ) ;
#2 = ORIENTED_EDGE ( 'NONE', *, *, #27, .T. ) ;
#3 = DIRECTION ( 'NONE',  ( -1.000000000000000000, -0.0000000000000000000, -0.0000000000000000000 ) ) ;
#4 =( LENGTH_UNIT ( ) NAMED_UNIT ( * ) SI_UNIT ( .MILLI., .METRE. ) );
#5 = LINE ( 'NONE', #98, #135 ) ;
#6 = VERTEX_POINT ( 'NONE', #51 ) ;
#7 = ADVANCED_FACE ( 'NONE', ( #118 ), #31, .F. ) ;
#8 = EDGE_CURVE ( 'NONE', #136, #109, #58, .T. ) ;
#9 = ORIENTED_EDGE ( 'NONE', *, *, #147, .T. ) ;
#10 = ORIENTED_EDGE ( 'NONE', *, *, #41, .F. ) ;
#11 = VERTEX_POINT ( 'NONE', #125 ) ;
#12 = AXIS2_PLACEMENT_3D ( 'NONE', #49, #76, #186 ) ;
#13 = DIRECTION ( 'NONE',  ( 0.0000000000000000000, 1.000000000000000000, 0.0000000000000000000 ) ) ;
#14 = ORIENTED_EDGE ( 'NONE', *, *, #134, .T. ) ;
#15 = EDGE_CURVE ( 'NONE', #109, #172, #196, .T. ) ;
#16 = EDGE_LOOP ( 'NONE', ( #2, #10, #181, #20 ) ) ;
#17 = AXIS2_PLACEMENT_3D ( 'NONE', #185, #174, #55 ) ;
#18 = PRODUCT_RELATED_PRODUCT_CATEGORY ( 'part', '', ( #184 ) ) ;
#19 = VERTEX_POINT ( 'NONE', #111 ) ;
#20 = ORIENTED_EDGE ( 'NONE', *, *, #95, .T. ) ;
#21 = ORIENTED_EDGE ( 'NONE', *, *, #147, .F. ) ;
#22 = LINE ( 'NONE', #122, #63 ) ;
#23 = ORIENTED_EDGE ( 'NONE', *, *, #86, .T. ) ;
#24 = PRODUCT_DEFINITION_FORMATION_WITH_SPECIFIED_SOURCE ( 'ANY', '', #184, .NOT_KNOWN. ) ;
#25 = DIRECTION ( 'NONE',  ( 1.156482317317871500E-016, -1.000000000000000000, 0.0000000000000000000 ) ) ;
#26 = SURFACE_STYLE_USAGE ( .BOTH. , #47 ) ;
#27 = EDGE_CURVE ( 'NONE', #19, #11, #192, .T. ) ;
#28 = DIRECTION ( 'NONE',  ( 1.000000000000000000, 1.156482317317871500E-016, -0.0000000000000000000 ) ) ;
#29 = CARTESIAN_POINT ( 'NONE',  ( -9.999999999999998200, -14.99999999999999500, 3.000000000000000000 ) ) ;
#30 = SURFACE_SIDE_STYLE ('',( #79 ) ) ;
#31 = PLANE ( 'NONE',  #121 ) ;
#32 = LINE ( 'NONE', #151, #114 ) ;
#33 = CLOSED_SHELL ( 'NONE', ( #7, #140, #191, #61, #85, #137 ) ) ;
#34 = VECTOR ( 'NONE', #133, 1000.000000000000000 ) ;
#35 = CARTESIAN_POINT ( 'NONE',  ( -9.999999999999998200, -14.99999999999999500, 3.000000000000000000 ) ) ;
#36 = AXIS2_PLACEMENT_3D ( 'NONE', #70, #112, #59 ) ;
#37 = APPLICATION_CONTEXT ( 'automotive_design' ) ;
#38 = ORIENTED_EDGE ( 'NONE', *, *, #27, .F. ) ;
#39 = DIRECTION ( 'NONE',  ( 1.000000000000000000, 0.0000000000000000000, 0.0000000000000000000 ) ) ;
#40 = CARTESIAN_POINT ( 'NONE',  ( 9.999999999999998200, 15.00000000000000400, 3.000000000000000000 ) ) ;
#41 = EDGE_CURVE ( 'NONE', #136, #11, #99, .T. ) ;
#42 = DIRECTION ( 'NONE',  ( 1.156482317317871500E-016, -1.000000000000000000, 0.0000000000000000000 ) ) ;
#43 = PRESENTATION_LAYER_ASSIGNMENT (  '', '', ( #138 ) ) ;
#44 = SURFACE_STYLE_FILL_AREA ( #105 ) ;
#45 = DIRECTION ( 'NONE',  ( -1.156482317317871500E-016, 1.000000000000000000, -0.0000000000000000000 ) ) ;
#46 = DIRECTION ( 'NONE',  ( -1.156482317317871500E-016, 1.000000000000000000, -0.0000000000000000000 ) ) ;
#47 = SURFACE_SIDE_STYLE ('',( #44 ) ) ;
#48 = FACE_OUTER_BOUND ( 'NONE', #179, .T. ) ;
#49 = CARTESIAN_POINT ( 'NONE',  ( -10.00000000000000200, 15.00000000000000400, 3.000000000000000000 ) ) ;
#50 = CARTESIAN_POINT ( 'NONE',  ( -10.00000000000000200, 15.00000000000000400, 3.000000000000000000 ) ) ;
#51 = CARTESIAN_POINT ( 'NONE',  ( 9.999999999999998200, 15.00000000000000400, 0.0000000000000000000 ) ) ;
#52 = CARTESIAN_POINT ( 'NONE',  ( -10.00000000000000200, 15.00000000000000400, 3.000000000000000000 ) ) ;
#53 = CARTESIAN_POINT ( 'NONE',  ( 9.999999999999998200, 15.00000000000000400, 3.000000000000000000 ) ) ;
#54 = LINE ( 'NONE', #60, #34 ) ;
#55 = DIRECTION ( 'NONE',  ( 1.000000000000000000, 0.0000000000000000000, 0.0000000000000000000 ) ) ;
#56 = LINE ( 'NONE', #153, #67 ) ;
#57 = PLANE ( 'NONE',  #101 ) ;
#58 = LINE ( 'NONE', #35, #190 ) ;
#59 = DIRECTION ( 'NONE',  ( 1.156482317317871500E-016, -1.000000000000000000, 0.0000000000000000000 ) ) ;
#60 = CARTESIAN_POINT ( 'NONE',  ( -10.00000000000000200, 15.00000000000000400, 3.000000000000000000 ) ) ;
#61 = ADVANCED_FACE ( 'NONE', ( #197 ), #126, .F. ) ;
#62 = COLOUR_RGB ( '',0.7921568627450980000, 0.8196078431372548800, 0.9333333333333333500 ) ;
#63 = VECTOR ( 'NONE', #46, 1000.000000000000000 ) ;
#64 = EDGE_CURVE ( 'NONE', #187, #136, #128, .T. ) ;
#65 =( LENGTH_UNIT ( ) NAMED_UNIT ( * ) SI_UNIT ( .MILLI., .METRE. ) );
#66 = VECTOR ( 'NONE', #116, 1000.000000000000000 ) ;
#67 = VECTOR ( 'NONE', #96, 1000.000000000000000 ) ;
#68 = FACE_OUTER_BOUND ( 'NONE', #152, .T. ) ;
#69 = LINE ( 'NONE', #50, #66 ) ;
#70 = CARTESIAN_POINT ( 'NONE',  ( 9.999999999999998200, 15.00000000000000400, 3.000000000000000000 ) ) ;
#71 = FILL_AREA_STYLE_COLOUR ( '', #84 ) ;
#72 = EDGE_CURVE ( 'NONE', #6, #19, #32, .T. ) ;
#73 = PRESENTATION_LAYER_ASSIGNMENT (  '', '', ( #173 ) ) ;
#74 = FILL_AREA_STYLE ('',( #90 ) ) ;
#75 = DIRECTION ( 'NONE',  ( -0.0000000000000000000, -0.0000000000000000000, -1.000000000000000000 ) ) ;
#76 = DIRECTION ( 'NONE',  ( 0.0000000000000000000, -1.000000000000000000, 0.0000000000000000000 ) ) ;
#77 = FACE_OUTER_BOUND ( 'NONE', #182, .T. ) ;
#78 =( NAMED_UNIT ( * ) PLANE_ANGLE_UNIT ( ) SI_UNIT ( $, .RADIAN. ) );
#79 = SURFACE_STYLE_FILL_AREA ( #74 ) ;
#80 =( NAMED_UNIT ( * ) SI_UNIT ( $, .STERADIAN. ) SOLID_ANGLE_UNIT ( ) );
#81 = CARTESIAN_POINT ( 'NONE',  ( -10.00000000000000200, 15.00000000000000400, 3.000000000000000000 ) ) ;
#82 = EDGE_CURVE ( 'NONE', #172, #6, #131, .T. ) ;
#83 = PRODUCT_DEFINITION ( 'UNKNOWN', '', #24, #183 ) ;
#84 = COLOUR_RGB ( '',0.7921568627450980000, 0.8196078431372548800, 0.9333333333333333500 ) ;
#85 = ADVANCED_FACE ( 'NONE', ( #176 ), #142, .T. ) ;
#86 = EDGE_CURVE ( 'NONE', #11, #157, #5, .T. ) ;
#87 = CARTESIAN_POINT ( 'NONE',  ( -10.00000000000000200, 15.00000000000000400, 0.0000000000000000000 ) ) ;
#88 = UNCERTAINTY_MEASURE_WITH_UNIT (LENGTH_MEASURE( 1.000000000000000100E-005 ), #65, 'distance_accuracy_value', 'NONE');
#89 = PRESENTATION_STYLE_ASSIGNMENT (( #143 ) ) ;
#90 = FILL_AREA_STYLE_COLOUR ( '', #62 ) ;
#91 = DIRECTION ( 'NONE',  ( 1.000000000000000000, 0.0000000000000000000, 0.0000000000000000000 ) ) ;
#92 =( GEOMETRIC_REPRESENTATION_CONTEXT ( 3 ) GLOBAL_UNCERTAINTY_ASSIGNED_CONTEXT ( ( #156 ) ) GLOBAL_UNIT_ASSIGNED_CONTEXT ( ( #123, #97, #149 ) ) REPRESENTATION_CONTEXT ( 'NONE', 'WORKASPACE' ) );
#93 = ADVANCED_BREP_SHAPE_REPRESENTATION ( '061525100d', ( #198, #150 ), #92 ) ;
#94 = CARTESIAN_POINT ( 'NONE',  ( 0.0000000000000000000, 0.0000000000000000000, 0.0000000000000000000 ) ) ;
#95 = EDGE_CURVE ( 'NONE', #187, #19, #54, .T. ) ;
#96 = DIRECTION ( 'NONE',  ( -0.0000000000000000000, -0.0000000000000000000, -1.000000000000000000 ) ) ;
#97 =( NAMED_UNIT ( * ) PLANE_ANGLE_UNIT ( ) SI_UNIT ( $, .RADIAN. ) );
#98 = CARTESIAN_POINT ( 'NONE',  ( -9.999999999999998200, -14.99999999999999500, 0.0000000000000000000 ) ) ;
#99 = LINE ( 'NONE', #29, #199 ) ;
#100 = DIRECTION ( 'NONE',  ( 0.0000000000000000000, 0.0000000000000000000, 1.000000000000000000 ) ) ;
#101 = AXIS2_PLACEMENT_3D ( 'NONE', #148, #13, #104 ) ;
#102 = DIRECTION ( 'NONE',  ( 1.000000000000000000, 0.0000000000000000000, 0.0000000000000000000 ) ) ;
#103 = ORIENTED_EDGE ( 'NONE', *, *, #86, .F. ) ;
#104 = DIRECTION ( 'NONE',  ( 0.0000000000000000000, -0.0000000000000000000, 1.000000000000000000 ) ) ;
#105 = FILL_AREA_STYLE ('',( #71 ) ) ;
#106 = DIRECTION ( 'NONE',  ( -1.156482317317871500E-016, 1.000000000000000000, 0.0000000000000000000 ) ) ;
#107 = PRODUCT_CONTEXT ( 'NONE', #37, 'mechanical' ) ;
#108 = ORIENTED_EDGE ( 'NONE', *, *, #95, .F. ) ;
#109 = VERTEX_POINT ( 'NONE', #168 ) ;
#110 = ORIENTED_EDGE ( 'NONE', *, *, #15, .F. ) ;
#111 = CARTESIAN_POINT ( 'NONE',  ( -10.00000000000000200, 15.00000000000000400, 0.0000000000000000000 ) ) ;
#112 = DIRECTION ( 'NONE',  ( -1.000000000000000000, -1.156482317317871500E-016, 0.0000000000000000000 ) ) ;
#113 = MECHANICAL_DESIGN_GEOMETRIC_PRESENTATION_REPRESENTATION (  '', ( #173 ), #117 ) ;
#114 = VECTOR ( 'NONE', #3, 1000.000000000000000 ) ;
#115 = CARTESIAN_POINT ( 'NONE',  ( 10.00000000000000200, -14.99999999999999500, 0.0000000000000000000 ) ) ;
#116 = DIRECTION ( 'NONE',  ( -1.000000000000000000, -0.0000000000000000000, -0.0000000000000000000 ) ) ;
#117 =( GEOMETRIC_REPRESENTATION_CONTEXT ( 3 ) GLOBAL_UNCERTAINTY_ASSIGNED_CONTEXT ( ( #177 ) ) GLOBAL_UNIT_ASSIGNED_CONTEXT ( ( #4, #144, #141 ) ) REPRESENTATION_CONTEXT ( 'NONE', 'WORKASPACE' ) );
#118 = FACE_OUTER_BOUND ( 'NONE', #16, .T. ) ;
#119 = APPLICATION_CONTEXT ( 'automotive_design' ) ;
#120 = ORIENTED_EDGE ( 'NONE', *, *, #41, .T. ) ;
#121 = AXIS2_PLACEMENT_3D ( 'NONE', #81, #28, #106 ) ;
#122 = CARTESIAN_POINT ( 'NONE',  ( 9.999999999999998200, 15.00000000000000400, 0.0000000000000000000 ) ) ;
#123 =( LENGTH_UNIT ( ) NAMED_UNIT ( * ) SI_UNIT ( .MILLI., .METRE. ) );
#124 = CARTESIAN_POINT ( 'NONE',  ( 9.999999999999998200, 15.00000000000000400, 3.000000000000000000 ) ) ;
#125 = CARTESIAN_POINT ( 'NONE',  ( -9.999999999999998200, -14.99999999999999500, 0.0000000000000000000 ) ) ;
#126 = PLANE ( 'NONE',  #12 ) ;
#127 = EDGE_CURVE ( 'NONE', #157, #6, #22, .T. ) ;
#128 = LINE ( 'NONE', #146, #200 ) ;
#129 = DIRECTION ( 'NONE',  ( -0.0000000000000000000, 0.0000000000000000000, 1.000000000000000000 ) ) ;
#130 = SHAPE_DEFINITION_REPRESENTATION ( #170, #93 ) ;
#131 = LINE ( 'NONE', #53, #132 ) ;
#132 = VECTOR ( 'NONE', #165, 1000.000000000000000 ) ;
#133 = DIRECTION ( 'NONE',  ( -0.0000000000000000000, -0.0000000000000000000, -1.000000000000000000 ) ) ;
#134 = EDGE_CURVE ( 'NONE', #109, #157, #56, .T. ) ;
#135 = VECTOR ( 'NONE', #139, 1000.000000000000000 ) ;
#136 = VERTEX_POINT ( 'NONE', #1 ) ;
#137 = ADVANCED_FACE ( 'NONE', ( #48 ), #195, .F. ) ;
#138 = STYLED_ITEM ( 'NONE', ( #201 ), #93 ) ;
#139 = DIRECTION ( 'NONE',  ( 1.000000000000000000, 0.0000000000000000000, 0.0000000000000000000 ) ) ;
#140 = ADVANCED_FACE ( 'NONE', ( #68 ), #57, .F. ) ;
#141 =( NAMED_UNIT ( * ) SI_UNIT ( $, .STERADIAN. ) SOLID_ANGLE_UNIT ( ) );
#142 = PLANE ( 'NONE',  #188 ) ;
#143 = SURFACE_STYLE_USAGE ( .BOTH. , #30 ) ;
#144 =( NAMED_UNIT ( * ) PLANE_ANGLE_UNIT ( ) SI_UNIT ( $, .RADIAN. ) );
#145 = APPLICATION_PROTOCOL_DEFINITION ( 'draft international standard', 'automotive_design', 1998, #119 ) ;
#146 = CARTESIAN_POINT ( 'NONE',  ( -10.00000000000000200, 15.00000000000000400, 3.000000000000000000 ) ) ;
#147 = EDGE_CURVE ( 'NONE', #172, #187, #69, .T. ) ;
#148 = CARTESIAN_POINT ( 'NONE',  ( -9.999999999999998200, -14.99999999999999500, 3.000000000000000000 ) ) ;
#149 =( NAMED_UNIT ( * ) SI_UNIT ( $, .STERADIAN. ) SOLID_ANGLE_UNIT ( ) );
#150 = AXIS2_PLACEMENT_3D ( 'NONE', #94, #100, #91 ) ;
#151 = CARTESIAN_POINT ( 'NONE',  ( -10.00000000000000200, 15.00000000000000400, 0.0000000000000000000 ) ) ;
#152 = EDGE_LOOP ( 'NONE', ( #23, #159, #180, #120 ) ) ;
#153 = CARTESIAN_POINT ( 'NONE',  ( 10.00000000000000200, -14.99999999999999500, 3.000000000000000000 ) ) ;
#154 = PLANE ( 'NONE',  #36 ) ;
#155 = EDGE_LOOP ( 'NONE', ( #167, #175, #164, #9 ) ) ;
#156 = UNCERTAINTY_MEASURE_WITH_UNIT (LENGTH_MEASURE( 1.000000000000000100E-005 ), #123, 'distance_accuracy_value', 'NONE');
#157 = VERTEX_POINT ( 'NONE', #115 ) ;
#158 = EDGE_LOOP ( 'NONE', ( #171, #108, #21, #160 ) ) ;
#159 = ORIENTED_EDGE ( 'NONE', *, *, #134, .F. ) ;
#160 = ORIENTED_EDGE ( 'NONE', *, *, #82, .T. ) ;
#161 = ORIENTED_EDGE ( 'NONE', *, *, #82, .F. ) ;
#162 = ORIENTED_EDGE ( 'NONE', *, *, #127, .F. ) ;
#163 = ORIENTED_EDGE ( 'NONE', *, *, #72, .F. ) ;
#164 = ORIENTED_EDGE ( 'NONE', *, *, #15, .T. ) ;
#165 = DIRECTION ( 'NONE',  ( -0.0000000000000000000, -0.0000000000000000000, -1.000000000000000000 ) ) ;
#166 = VECTOR ( 'NONE', #45, 1000.000000000000000 ) ;
#167 = ORIENTED_EDGE ( 'NONE', *, *, #64, .T. ) ;
#168 = CARTESIAN_POINT ( 'NONE',  ( 10.00000000000000200, -14.99999999999999500, 3.000000000000000000 ) ) ;
#169 = CARTESIAN_POINT ( 'NONE',  ( 0.0000000000000000000, 0.0000000000000000000, 3.000000000000000000 ) ) ;
#170 = PRODUCT_DEFINITION_SHAPE ( 'NONE', 'NONE',  #83 ) ;
#171 = ORIENTED_EDGE ( 'NONE', *, *, #72, .T. ) ;
#172 = VERTEX_POINT ( 'NONE', #124 ) ;
#173 = STYLED_ITEM ( 'NONE', ( #89 ), #198 ) ;
#174 = DIRECTION ( 'NONE',  ( -0.0000000000000000000, 0.0000000000000000000, 1.000000000000000000 ) ) ;
#175 = ORIENTED_EDGE ( 'NONE', *, *, #8, .T. ) ;
#176 = FACE_OUTER_BOUND ( 'NONE', #155, .T. ) ;
#177 = UNCERTAINTY_MEASURE_WITH_UNIT (LENGTH_MEASURE( 1.000000000000000100E-005 ), #4, 'distance_accuracy_value', 'NONE');
#178 = ORIENTED_EDGE ( 'NONE', *, *, #127, .T. ) ;
#179 = EDGE_LOOP ( 'NONE', ( #38, #163, #162, #103 ) ) ;
#180 = ORIENTED_EDGE ( 'NONE', *, *, #8, .F. ) ;
#181 = ORIENTED_EDGE ( 'NONE', *, *, #64, .F. ) ;
#182 = EDGE_LOOP ( 'NONE', ( #178, #161, #110, #14 ) ) ;
#183 = PRODUCT_DEFINITION_CONTEXT ( 'detailed design', #119, 'design' ) ;
#184 = PRODUCT ( '061525100d', '061525100d', '', ( #107 ) ) ;
#185 = CARTESIAN_POINT ( 'NONE',  ( 0.0000000000000000000, 0.0000000000000000000, 0.0000000000000000000 ) ) ;
#186 = DIRECTION ( 'NONE',  ( 0.0000000000000000000, -0.0000000000000000000, -1.000000000000000000 ) ) ;
#187 = VERTEX_POINT ( 'NONE', #52 ) ;
#188 = AXIS2_PLACEMENT_3D ( 'NONE', #169, #129, #102 ) ;
#189 =( GEOMETRIC_REPRESENTATION_CONTEXT ( 3 ) GLOBAL_UNCERTAINTY_ASSIGNED_CONTEXT ( ( #88 ) ) GLOBAL_UNIT_ASSIGNED_CONTEXT ( ( #65, #78, #80 ) ) REPRESENTATION_CONTEXT ( 'NONE', 'WORKASPACE' ) );
#190 = VECTOR ( 'NONE', #39, 1000.000000000000000 ) ;
#191 = ADVANCED_FACE ( 'NONE', ( #77 ), #154, .F. ) ;
#192 = LINE ( 'NONE', #87, #193 ) ;
#193 = VECTOR ( 'NONE', #25, 1000.000000000000000 ) ;
#194 = MECHANICAL_DESIGN_GEOMETRIC_PRESENTATION_REPRESENTATION (  '', ( #138 ), #189 ) ;
#195 = PLANE ( 'NONE',  #17 ) ;
#196 = LINE ( 'NONE', #40, #166 ) ;
#197 = FACE_OUTER_BOUND ( 'NONE', #158, .T. ) ;
#198 = MANIFOLD_SOLID_BREP ( 'Aufsatz-Linear austragen1', #33 ) ;
#199 = VECTOR ( 'NONE', #75, 1000.000000000000000 ) ;
#200 = VECTOR ( 'NONE', #42, 1000.000000000000000 ) ;
#201 = PRESENTATION_STYLE_ASSIGNMENT (( #26 ) ) ;
#202 = APPLICATION_PROTOCOL_DEFINITION ( 'draft international standard', 'automotive_design', 1998, #37 ) ;
ENDSEC;
END-ISO-10303-21;
