ISO-10303-21;
HEADER;
FILE_DESCRIPTION (( 'STEP AP203' ),
    '1' );
FILE_NAME ('0713410k.STEP',
    '2018-02-16T08:00:05',
    ( 'user' ),
    ( '' ),
    'SwSTEP 2.0',
    'SolidWorks 2014',
    '' );
FILE_SCHEMA (( 'CONFIG_CONTROL_DESIGN' ));
ENDSEC;

DATA;
#1 = DATE_AND_TIME ( #45, #12 ) ;
#2 = CC_DESIGN_PERSON_AND_ORGANIZATION_ASSIGNMENT ( #106, #157, ( #165 ) ) ;
#3 = PRODUCT_DEFINITION_SHAPE ( 'NONE', 'NONE',  #77 ) ;
#4 = ORIENTED_EDGE ( 'NONE', *, *, #134, .T. ) ;
#5 = AXIS2_PLACEMENT_3D ( 'NONE', #169, #60, #61 ) ;
#6 = CALENDAR_DATE ( 2018, 16, 2 ) ;
#7 = DIRECTION ( 'NONE',  ( 0.0000000000000000000, 0.0000000000000000000, 1.000000000000000000 ) ) ;
#8 = DIRECTION ( 'NONE',  ( -0.0000000000000000000, -0.0000000000000000000, -1.000000000000000000 ) ) ;
#9 = FACE_OUTER_BOUND ( 'NONE', #31, .T. ) ;
#10 = AXIS2_PLACEMENT_3D ( 'NONE', #20, #108, #34 ) ;
#11 = APPROVAL_STATUS ( 'not_yet_approved' ) ;
#12 = LOCAL_TIME ( 9, 0, 5.000000000000000000, #147 ) ;
#13 = CC_DESIGN_DATE_AND_TIME_ASSIGNMENT ( #1, #75, ( #165 ) ) ;
#14 = MANIFOLD_SOLID_BREP ( 'Linear austragen1', #33 ) ;
#15 = LOCAL_TIME ( 9, 0, 5.000000000000000000, #53 ) ;
#16 = LINE ( 'NONE', #79, #93 ) ;
#17 = EDGE_CURVE ( 'NONE', #135, #49, #81, .T. ) ;
#18 = CALENDAR_DATE ( 2018, 16, 2 ) ;
#19 = APPROVAL ( #172, 'UNSPECIFIED' ) ;
#20 = CARTESIAN_POINT ( 'NONE',  ( 0.0000000000000000000, 0.0000000000000000000, 0.0000000000000000000 ) ) ;
#21 = DIRECTION ( 'NONE',  ( 0.0000000000000000000, 0.0000000000000000000, 1.000000000000000000 ) ) ;
#22 = ORIENTED_EDGE ( 'NONE', *, *, #48, .T. ) ;
#23 = DIRECTION ( 'NONE',  ( -0.0000000000000000000, -0.0000000000000000000, -1.000000000000000000 ) ) ;
#24 =( NAMED_UNIT ( * ) PLANE_ANGLE_UNIT ( ) SI_UNIT ( $, .RADIAN. ) );
#25 = PERSON_AND_ORGANIZATION_ROLE ( 'creator' ) ;
#26 = DATE_AND_TIME ( #56, #92 ) ;
#27 = CIRCLE ( 'NONE', #122, 10.00000000000000000 ) ;
#28 = AXIS2_PLACEMENT_3D ( 'NONE', #96, #71, #123 ) ;
#29 = EDGE_CURVE ( 'NONE', #135, #130, #16, .T. ) ;
#30 = PERSON_AND_ORGANIZATION ( #127, #131 ) ;
#31 = EDGE_LOOP ( 'NONE', ( #41, #69 ) ) ;
#32 = CC_DESIGN_APPROVAL ( #19, ( #165 ) ) ;
#33 = CLOSED_SHELL ( 'NONE', ( #50, #154, #98, #168 ) ) ;
#34 = DIRECTION ( 'NONE',  ( 1.000000000000000000, 0.0000000000000000000, 0.0000000000000000000 ) ) ;
#35 = CARTESIAN_POINT ( 'NONE',  ( 10.00000000000000000, 1.224646799147353300E-015, 4.000000000000000000 ) ) ;
#36 = ORIENTED_EDGE ( 'NONE', *, *, #17, .T. ) ;
#37 = EDGE_CURVE ( 'NONE', #130, #164, #133, .T. ) ;
#38 = APPROVAL_STATUS ( 'not_yet_approved' ) ;
#39 = PERSON_AND_ORGANIZATION ( #127, #131 ) ;
#40 = CC_DESIGN_SECURITY_CLASSIFICATION ( #165, ( #120 ) ) ;
#41 = ORIENTED_EDGE ( 'NONE', *, *, #37, .F. ) ;
#42 = PERSON_AND_ORGANIZATION ( #127, #131 ) ;
#43 = ORIENTED_EDGE ( 'NONE', *, *, #48, .F. ) ;
#44 = EDGE_CURVE ( 'NONE', #164, #130, #119, .T. ) ;
#45 = CALENDAR_DATE ( 2018, 16, 2 ) ;
#46 = PRODUCT_RELATED_PRODUCT_CATEGORY ( 'detail', '', ( #171 ) ) ;
#47 = PLANE ( 'NONE',  #67 ) ;
#48 = EDGE_CURVE ( 'NONE', #49, #135, #27, .T. ) ;
#49 = VERTEX_POINT ( 'NONE', #55 ) ;
#50 = ADVANCED_FACE ( 'NONE', ( #78 ), #83, .T. ) ;
#51 = CARTESIAN_POINT ( 'NONE',  ( 10.00000000000000000, 1.224646799147353300E-015, 0.0000000000000000000 ) ) ;
#52 = PERSON_AND_ORGANIZATION_ROLE ( 'creator' ) ;
#53 = COORDINATED_UNIVERSAL_TIME_OFFSET ( 1, 0, .AHEAD. ) ;
#54 = LOCAL_TIME ( 9, 0, 5.000000000000000000, #90 ) ;
#55 = CARTESIAN_POINT ( 'NONE',  ( 10.00000000000000000, 1.224646799147353300E-015, 4.000000000000000000 ) ) ;
#56 = CALENDAR_DATE ( 2018, 16, 2 ) ;
#57 = FACE_OUTER_BOUND ( 'NONE', #153, .T. ) ;
#58 = DIRECTION ( 'NONE',  ( 0.0000000000000000000, 0.0000000000000000000, 1.000000000000000000 ) ) ;
#59 = DIRECTION ( 'NONE',  ( 1.000000000000000000, 0.0000000000000000000, -0.0000000000000000000 ) ) ;
#60 = DIRECTION ( 'NONE',  ( 0.0000000000000000000, 0.0000000000000000000, 1.000000000000000000 ) ) ;
#61 = DIRECTION ( 'NONE',  ( 1.000000000000000000, 0.0000000000000000000, 0.0000000000000000000 ) ) ;
#62 = PERSON_AND_ORGANIZATION ( #127, #131 ) ;
#63 = FACE_OUTER_BOUND ( 'NONE', #66, .T. ) ;
#64 = SECURITY_CLASSIFICATION_LEVEL ( 'unclassified' ) ;
#65 = DIRECTION ( 'NONE',  ( -0.0000000000000000000, -0.0000000000000000000, -1.000000000000000000 ) ) ;
#66 = EDGE_LOOP ( 'NONE', ( #103, #73, #100, #160 ) ) ;
#67 = AXIS2_PLACEMENT_3D ( 'NONE', #109, #21, #59 ) ;
#68 = SHAPE_DEFINITION_REPRESENTATION ( #3, #166 ) ;
#69 = ORIENTED_EDGE ( 'NONE', *, *, #44, .F. ) ;
#70 = APPROVAL_PERSON_ORGANIZATION ( #39, #19, #91 ) ;
#71 = DIRECTION ( 'NONE',  ( -0.0000000000000000000, -0.0000000000000000000, -1.000000000000000000 ) ) ;
#72 = DIRECTION ( 'NONE',  ( 1.000000000000000000, 0.0000000000000000000, -0.0000000000000000000 ) ) ;
#73 = ORIENTED_EDGE ( 'NONE', *, *, #17, .F. ) ;
#74 = PERSON_AND_ORGANIZATION_ROLE ( 'design_owner' ) ;
#75 = DATE_TIME_ROLE ( 'classification_date' ) ;
#76 = PERSON_AND_ORGANIZATION ( #127, #131 ) ;
#77 = PRODUCT_DEFINITION ( 'UNKNOWN', '', #120, #86 ) ;
#78 = FACE_OUTER_BOUND ( 'NONE', #141, .T. ) ;
#79 = CARTESIAN_POINT ( 'NONE',  ( -10.00000000000000000, 0.0000000000000000000, 4.000000000000000000 ) ) ;
#80 = DIRECTION ( 'NONE',  ( 0.0000000000000000000, 0.0000000000000000000, 1.000000000000000000 ) ) ;
#81 = CIRCLE ( 'NONE', #146, 10.00000000000000000 ) ;
#82 = APPROVAL_DATE_TIME ( #115, #129 ) ;
#83 = CYLINDRICAL_SURFACE ( 'NONE', #28, 10.00000000000000000 ) ;
#84 = APPROVAL_PERSON_ORGANIZATION ( #118, #129, #128 ) ;
#85 = APPROVAL ( #11, 'UNSPECIFIED' ) ;
#86 = DESIGN_CONTEXT ( 'detailed design', #170, 'design' ) ;
#87 = CARTESIAN_POINT ( 'NONE',  ( 0.0000000000000000000, 0.0000000000000000000, 4.000000000000000000 ) ) ;
#88 = CARTESIAN_POINT ( 'NONE',  ( -10.00000000000000000, 0.0000000000000000000, 4.000000000000000000 ) ) ;
#89 = APPLICATION_PROTOCOL_DEFINITION ( 'international standard', 'config_control_design', 1994, #170 ) ;
#90 = COORDINATED_UNIVERSAL_TIME_OFFSET ( 1, 0, .AHEAD. ) ;
#91 = APPROVAL_ROLE ( '' ) ;
#92 = LOCAL_TIME ( 9, 0, 5.000000000000000000, #126 ) ;
#93 = VECTOR ( 'NONE', #65, 1000.000000000000000 ) ;
#94 = CC_DESIGN_APPROVAL ( #85, ( #77 ) ) ;
#95 = LINE ( 'NONE', #35, #110 ) ;
#96 = CARTESIAN_POINT ( 'NONE',  ( 0.0000000000000000000, 0.0000000000000000000, 4.000000000000000000 ) ) ;
#97 = DIRECTION ( 'NONE',  ( 1.000000000000000000, 0.0000000000000000000, 0.0000000000000000000 ) ) ;
#98 = ADVANCED_FACE ( 'NONE', ( #57 ), #47, .T. ) ;
#99 =( LENGTH_UNIT ( ) NAMED_UNIT ( * ) SI_UNIT ( .MILLI., .METRE. ) );
#100 = ORIENTED_EDGE ( 'NONE', *, *, #29, .T. ) ;
#101 = APPROVAL_ROLE ( '' ) ;
#102 = CC_DESIGN_PERSON_AND_ORGANIZATION_ASSIGNMENT ( #121, #25, ( #77 ) ) ;
#103 = ORIENTED_EDGE ( 'NONE', *, *, #134, .F. ) ;
#104 = AXIS2_PLACEMENT_3D ( 'NONE', #152, #155, #72 ) ;
#105 = COORDINATED_UNIVERSAL_TIME_OFFSET ( 1, 0, .AHEAD. ) ;
#106 = PERSON_AND_ORGANIZATION ( #127, #131 ) ;
#107 = CC_DESIGN_DATE_AND_TIME_ASSIGNMENT ( #158, #113, ( #77 ) ) ;
#108 = DIRECTION ( 'NONE',  ( 0.0000000000000000000, 0.0000000000000000000, 1.000000000000000000 ) ) ;
#109 = CARTESIAN_POINT ( 'NONE',  ( 0.0000000000000000000, 0.0000000000000000000, 4.000000000000000000 ) ) ;
#110 = VECTOR ( 'NONE', #8, 1000.000000000000000 ) ;
#111 = DIRECTION ( 'NONE',  ( -1.000000000000000000, 0.0000000000000000000, 0.0000000000000000000 ) ) ;
#112 =( NAMED_UNIT ( * ) SI_UNIT ( $, .STERADIAN. ) SOLID_ANGLE_UNIT ( ) );
#113 = DATE_TIME_ROLE ( 'creation_date' ) ;
#114 = AXIS2_PLACEMENT_3D ( 'NONE', #167, #23, #111 ) ;
#115 = DATE_AND_TIME ( #150, #15 ) ;
#116 = UNCERTAINTY_MEASURE_WITH_UNIT (LENGTH_MEASURE( 1.000000000000000100E-005 ), #99, 'distance_accuracy_value', 'NONE');
#117 = ORIENTED_EDGE ( 'NONE', *, *, #44, .T. ) ;
#118 = PERSON_AND_ORGANIZATION ( #127, #131 ) ;
#119 = CIRCLE ( 'NONE', #124, 10.00000000000000000 ) ;
#120 = PRODUCT_DEFINITION_FORMATION_WITH_SPECIFIED_SOURCE ( 'ANY', '', #171, .NOT_KNOWN. ) ;
#121 = PERSON_AND_ORGANIZATION ( #127, #131 ) ;
#122 = AXIS2_PLACEMENT_3D ( 'NONE', #87, #7, #97 ) ;
#123 = DIRECTION ( 'NONE',  ( -1.000000000000000000, 0.0000000000000000000, 0.0000000000000000000 ) ) ;
#124 = AXIS2_PLACEMENT_3D ( 'NONE', #137, #58, #151 ) ;
#125 = APPLICATION_PROTOCOL_DEFINITION ( 'international standard', 'config_control_design', 1994, #142 ) ;
#126 = COORDINATED_UNIVERSAL_TIME_OFFSET ( 1, 0, .AHEAD. ) ;
#127 = PERSON ( 'UNSPECIFIED', 'UNSPECIFIED', 'UNSPECIFIED', ('UNSPECIFIED'), ('UNSPECIFIED'), ('UNSPECIFIED') ) ;
#128 = APPROVAL_ROLE ( '' ) ;
#129 = APPROVAL ( #38, 'UNSPECIFIED' ) ;
#130 = VERTEX_POINT ( 'NONE', #138 ) ;
#131 = ORGANIZATION ( 'UNSPECIFIED', 'UNSPECIFIED', '' ) ;
#132 = DATE_AND_TIME ( #6, #144 ) ;
#133 = CIRCLE ( 'NONE', #10, 10.00000000000000000 ) ;
#134 = EDGE_CURVE ( 'NONE', #49, #164, #95, .T. ) ;
#135 = VERTEX_POINT ( 'NONE', #88 ) ;
#136 = CC_DESIGN_APPROVAL ( #129, ( #120 ) ) ;
#137 = CARTESIAN_POINT ( 'NONE',  ( 0.0000000000000000000, 0.0000000000000000000, 0.0000000000000000000 ) ) ;
#138 = CARTESIAN_POINT ( 'NONE',  ( -10.00000000000000000, 0.0000000000000000000, 0.0000000000000000000 ) ) ;
#139 = PLANE ( 'NONE',  #104 ) ;
#140 = CYLINDRICAL_SURFACE ( 'NONE', #114, 10.00000000000000000 ) ;
#141 = EDGE_LOOP ( 'NONE', ( #43, #4, #117, #175 ) ) ;
#142 = APPLICATION_CONTEXT ( 'configuration controlled 3d designs of mechanical parts and assemblies' ) ;
#143 = PERSON_AND_ORGANIZATION_ROLE ( 'design_supplier' ) ;
#144 = LOCAL_TIME ( 9, 0, 5.000000000000000000, #105 ) ;
#145 = CARTESIAN_POINT ( 'NONE',  ( 0.0000000000000000000, 0.0000000000000000000, 4.000000000000000000 ) ) ;
#146 = AXIS2_PLACEMENT_3D ( 'NONE', #145, #80, #162 ) ;
#147 = COORDINATED_UNIVERSAL_TIME_OFFSET ( 1, 0, .AHEAD. ) ;
#148 = CC_DESIGN_PERSON_AND_ORGANIZATION_ASSIGNMENT ( #42, #52, ( #120 ) ) ;
#149 = CC_DESIGN_PERSON_AND_ORGANIZATION_ASSIGNMENT ( #62, #74, ( #171 ) ) ;
#150 = CALENDAR_DATE ( 2018, 16, 2 ) ;
#151 = DIRECTION ( 'NONE',  ( 1.000000000000000000, 0.0000000000000000000, 0.0000000000000000000 ) ) ;
#152 = CARTESIAN_POINT ( 'NONE',  ( 0.0000000000000000000, 0.0000000000000000000, 0.0000000000000000000 ) ) ;
#153 = EDGE_LOOP ( 'NONE', ( #36, #22 ) ) ;
#154 = ADVANCED_FACE ( 'NONE', ( #63 ), #140, .T. ) ;
#155 = DIRECTION ( 'NONE',  ( 0.0000000000000000000, 0.0000000000000000000, 1.000000000000000000 ) ) ;
#156 = MECHANICAL_CONTEXT ( 'NONE', #142, 'mechanical' ) ;
#157 = PERSON_AND_ORGANIZATION_ROLE ( 'classification_officer' ) ;
#158 = DATE_AND_TIME ( #18, #54 ) ;
#159 = CC_DESIGN_PERSON_AND_ORGANIZATION_ASSIGNMENT ( #76, #143, ( #120 ) ) ;
#160 = ORIENTED_EDGE ( 'NONE', *, *, #37, .T. ) ;
#161 = APPROVAL_DATE_TIME ( #26, #85 ) ;
#162 = DIRECTION ( 'NONE',  ( 1.000000000000000000, 0.0000000000000000000, 0.0000000000000000000 ) ) ;
#163 = APPROVAL_PERSON_ORGANIZATION ( #30, #85, #101 ) ;
#164 = VERTEX_POINT ( 'NONE', #51 ) ;
#165 = SECURITY_CLASSIFICATION ( '', '', #64 ) ;
#166 = ADVANCED_BREP_SHAPE_REPRESENTATION ( '0713410k', ( #14, #5 ), #174 ) ;
#167 = CARTESIAN_POINT ( 'NONE',  ( 0.0000000000000000000, 0.0000000000000000000, 4.000000000000000000 ) ) ;
#168 = ADVANCED_FACE ( 'NONE', ( #9 ), #139, .F. ) ;
#169 = CARTESIAN_POINT ( 'NONE',  ( 0.0000000000000000000, 0.0000000000000000000, 0.0000000000000000000 ) ) ;
#170 = APPLICATION_CONTEXT ( 'configuration controlled 3d designs of mechanical parts and assemblies' ) ;
#171 = PRODUCT ( '0713410k', '0713410k', '', ( #156 ) ) ;
#172 = APPROVAL_STATUS ( 'not_yet_approved' ) ;
#173 = APPROVAL_DATE_TIME ( #132, #19 ) ;
#174 =( GEOMETRIC_REPRESENTATION_CONTEXT ( 3 ) GLOBAL_UNCERTAINTY_ASSIGNED_CONTEXT ( ( #116 ) ) GLOBAL_UNIT_ASSIGNED_CONTEXT ( ( #99, #24, #112 ) ) REPRESENTATION_CONTEXT ( 'NONE', 'WORKASPACE' ) );
#175 = ORIENTED_EDGE ( 'NONE', *, *, #29, .F. ) ;
ENDSEC;
END-ISO-10303-21;
