ISO-10303-21;
HEADER;
FILE_DESCRIPTION (( 'STEP AP203' ),
    '1' );
FILE_NAME ('07264500d.STEP',
    '2020-08-08T14:27:39',
    ( '' ),
    ( '' ),
    'SwSTEP 2.0',
    'SolidWorks 2018',
    '' );
FILE_SCHEMA (( 'CONFIG_CONTROL_DESIGN' ));
ENDSEC;

DATA;
#1 = EDGE_CURVE ( 'NONE', #131, #35, #170, .T. ) ;
#2 = APPROVAL_STATUS ( 'not_yet_approved' ) ;
#3 = ORIENTED_EDGE ( 'NONE', *, *, #87, .F. ) ;
#4 = UNCERTAINTY_MEASURE_WITH_UNIT (LENGTH_MEASURE( 1.000000000000000082E-05 ), #34, 'distance_accuracy_value', 'NONE');
#5 = COORDINATED_UNIVERSAL_TIME_OFFSET ( 1, 0, .AHEAD. ) ;
#6 =( GEOMETRIC_REPRESENTATION_CONTEXT ( 3 ) GLOBAL_UNCERTAINTY_ASSIGNED_CONTEXT ( ( #4 ) ) GLOBAL_UNIT_ASSIGNED_CONTEXT ( ( #34, #91, #134 ) ) REPRESENTATION_CONTEXT ( 'NONE', 'WORKASPACE' ) );
#7 = PERSON_AND_ORGANIZATION ( #13, #21 ) ;
#8 = APPROVAL_STATUS ( 'not_yet_approved' ) ;
#9 = APPROVAL ( #119, 'UNSPECIFIED' ) ;
#10 = APPLICATION_CONTEXT ( 'configuration controlled 3d designs of mechanical parts and assemblies' ) ;
#11 = DIRECTION ( 'NONE',  ( 0.0000000000000000000, -1.000000000000000000, 0.0000000000000000000 ) ) ;
#12 = CARTESIAN_POINT ( 'NONE',  ( 0.0000000000000000000, 2.500000000000000000, 0.0000000000000000000 ) ) ;
#13 = PERSON ( 'UNSPECIFIED', 'UNSPECIFIED', 'UNSPECIFIED', ('UNSPECIFIED'), ('UNSPECIFIED'), ('UNSPECIFIED') ) ;
#14 = CALENDAR_DATE ( 2020, 8, 8 ) ;
#15 = EDGE_LOOP ( 'NONE', ( #68, #45 ) ) ;
#16 = DATE_AND_TIME ( #51, #80 ) ;
#17 = DIRECTION ( 'NONE',  ( -0.0000000000000000000, -1.000000000000000000, -0.0000000000000000000 ) ) ;
#18 = AXIS2_PLACEMENT_3D ( 'NONE', #138, #11, #112 ) ;
#19 = CC_DESIGN_APPROVAL ( #9, ( #174 ) ) ;
#20 = ADVANCED_FACE ( 'NONE', ( #31 ), #89, .T. ) ;
#21 = ORGANIZATION ( 'UNSPECIFIED', 'UNSPECIFIED', '' ) ;
#22 = EDGE_CURVE ( 'NONE', #161, #131, #92, .T. ) ;
#23 = DIRECTION ( 'NONE',  ( 0.0000000000000000000, -1.000000000000000000, 0.0000000000000000000 ) ) ;
#24 = DIRECTION ( 'NONE',  ( 0.0000000000000000000, 0.0000000000000000000, 1.000000000000000000 ) ) ;
#25 = PERSON_AND_ORGANIZATION_ROLE ( 'design_owner' ) ;
#26 = VECTOR ( 'NONE', #94, 1000.000000000000000 ) ;
#27 = DIRECTION ( 'NONE',  ( 1.000000000000000000, 0.0000000000000000000, 0.0000000000000000000 ) ) ;
#28 = CARTESIAN_POINT ( 'NONE',  ( 0.0000000000000000000, 2.500000000000000000, 0.0000000000000000000 ) ) ;
#29 = CC_DESIGN_PERSON_AND_ORGANIZATION_ASSIGNMENT ( #73, #54, ( #174 ) ) ;
#30 = FACE_OUTER_BOUND ( 'NONE', #53, .T. ) ;
#31 = FACE_OUTER_BOUND ( 'NONE', #15, .T. ) ;
#32 = DATE_TIME_ROLE ( 'creation_date' ) ;
#33 = CYLINDRICAL_SURFACE ( 'NONE', #169, 5.000000000000000000 ) ;
#34 =( LENGTH_UNIT ( ) NAMED_UNIT ( * ) SI_UNIT ( .MILLI., .METRE. ) );
#35 = VERTEX_POINT ( 'NONE', #58 ) ;
#36 = MANIFOLD_SOLID_BREP ( 'Aufsatz-Linear austragen2', #99 ) ;
#37 = PERSON_AND_ORGANIZATION ( #13, #21 ) ;
#38 = DIRECTION ( 'NONE',  ( 0.0000000000000000000, -1.000000000000000000, 0.0000000000000000000 ) ) ;
#39 = PRODUCT_DEFINITION_SHAPE ( 'NONE', 'NONE',  #122 ) ;
#40 = CARTESIAN_POINT ( 'NONE',  ( 0.0000000000000000000, 2.500000000000000000, 0.0000000000000000000 ) ) ;
#41 = CC_DESIGN_PERSON_AND_ORGANIZATION_ASSIGNMENT ( #47, #150, ( #174 ) ) ;
#42 = DIRECTION ( 'NONE',  ( 0.0000000000000000000, 1.000000000000000000, 0.0000000000000000000 ) ) ;
#43 = APPROVAL_DATE_TIME ( #70, #90 ) ;
#44 = EDGE_CURVE ( 'NONE', #111, #35, #85, .T. ) ;
#45 = ORIENTED_EDGE ( 'NONE', *, *, #1, .T. ) ;
#46 = APPROVAL_PERSON_ORGANIZATION ( #72, #90, #88 ) ;
#47 = PERSON_AND_ORGANIZATION ( #13, #21 ) ;
#48 = AXIS2_PLACEMENT_3D ( 'NONE', #154, #23, #107 ) ;
#49 = LOCAL_TIME ( 16, 27, 39.00000000000000000, #76 ) ;
#50 = DIRECTION ( 'NONE',  ( 0.0000000000000000000, -0.0000000000000000000, 1.000000000000000000 ) ) ;
#51 = CALENDAR_DATE ( 2020, 8, 8 ) ;
#52 = AXIS2_PLACEMENT_3D ( 'NONE', #40, #171, #50 ) ;
#53 = EDGE_LOOP ( 'NONE', ( #64, #173, #151, #136 ) ) ;
#54 = PERSON_AND_ORGANIZATION_ROLE ( 'creator' ) ;
#55 = APPLICATION_PROTOCOL_DEFINITION ( 'international standard', 'config_control_design', 1994, #10 ) ;
#56 = CALENDAR_DATE ( 2020, 8, 8 ) ;
#57 = FACE_OUTER_BOUND ( 'NONE', #83, .T. ) ;
#58 = CARTESIAN_POINT ( 'NONE',  ( 0.0000000000000000000, -1.500000000000000000, -5.000000000000000000 ) ) ;
#59 = CARTESIAN_POINT ( 'NONE',  ( 0.0000000000000000000, 2.500000000000000000, -5.000000000000000000 ) ) ;
#60 = AXIS2_PLACEMENT_3D ( 'NONE', #128, #42, #142 ) ;
#61 = CARTESIAN_POINT ( 'NONE',  ( 0.0000000000000000000, 2.500000000000000000, -5.000000000000000000 ) ) ;
#62 = CIRCLE ( 'NONE', #147, 5.000000000000000000 ) ;
#63 = APPLICATION_PROTOCOL_DEFINITION ( 'international standard', 'config_control_design', 1994, #95 ) ;
#64 = ORIENTED_EDGE ( 'NONE', *, *, #22, .F. ) ;
#65 = PRODUCT ( '07264500d', '07264500d', '', ( #172 ) ) ;
#66 = SECURITY_CLASSIFICATION_LEVEL ( 'unclassified' ) ;
#67 = SECURITY_CLASSIFICATION ( '', '', #66 ) ;
#68 = ORIENTED_EDGE ( 'NONE', *, *, #87, .T. ) ;
#69 = ADVANCED_FACE ( 'NONE', ( #57 ), #81, .T. ) ;
#70 = DATE_AND_TIME ( #100, #143 ) ;
#71 = DIRECTION ( 'NONE',  ( 0.0000000000000000000, 1.000000000000000000, 0.0000000000000000000 ) ) ;
#72 = PERSON_AND_ORGANIZATION ( #13, #21 ) ;
#73 = PERSON_AND_ORGANIZATION ( #13, #21 ) ;
#74 = ORIENTED_EDGE ( 'NONE', *, *, #22, .T. ) ;
#75 = CC_DESIGN_PERSON_AND_ORGANIZATION_ASSIGNMENT ( #7, #165, ( #67 ) ) ;
#76 = COORDINATED_UNIVERSAL_TIME_OFFSET ( 1, 0, .AHEAD. ) ;
#77 = DATE_TIME_ROLE ( 'classification_date' ) ;
#78 = CARTESIAN_POINT ( 'NONE',  ( 6.123233995736766282E-16, 2.500000000000000000, 5.000000000000000000 ) ) ;
#79 = ADVANCED_FACE ( 'NONE', ( #135 ), #130, .T. ) ;
#80 = LOCAL_TIME ( 16, 27, 39.00000000000000000, #118 ) ;
#81 = PLANE ( 'NONE',  #52 ) ;
#82 = AXIS2_PLACEMENT_3D ( 'NONE', #124, #38, #152 ) ;
#83 = EDGE_LOOP ( 'NONE', ( #93, #96 ) ) ;
#84 = CC_DESIGN_DATE_AND_TIME_ASSIGNMENT ( #106, #77, ( #67 ) ) ;
#85 = LINE ( 'NONE', #59, #121 ) ;
#86 = DIRECTION ( 'NONE',  ( 0.0000000000000000000, 0.0000000000000000000, 1.000000000000000000 ) ) ;
#87 = EDGE_CURVE ( 'NONE', #35, #131, #125, .T. ) ;
#88 = APPROVAL_ROLE ( '' ) ;
#89 = PLANE ( 'NONE',  #48 ) ;
#90 = APPROVAL ( #2, 'UNSPECIFIED' ) ;
#91 =( NAMED_UNIT ( * ) PLANE_ANGLE_UNIT ( ) SI_UNIT ( $, .RADIAN. ) );
#92 = LINE ( 'NONE', #78, #26 ) ;
#93 = ORIENTED_EDGE ( 'NONE', *, *, #164, .T. ) ;
#94 = DIRECTION ( 'NONE',  ( -0.0000000000000000000, -1.000000000000000000, -0.0000000000000000000 ) ) ;
#95 = APPLICATION_CONTEXT ( 'configuration controlled 3d designs of mechanical parts and assemblies' ) ;
#96 = ORIENTED_EDGE ( 'NONE', *, *, #129, .T. ) ;
#97 = CARTESIAN_POINT ( 'NONE',  ( 0.0000000000000000000, 0.0000000000000000000, 0.0000000000000000000 ) ) ;
#98 = CC_DESIGN_APPROVAL ( #90, ( #67 ) ) ;
#99 = CLOSED_SHELL ( 'NONE', ( #79, #137, #69, #20 ) ) ;
#100 = CALENDAR_DATE ( 2020, 8, 8 ) ;
#101 = PERSON_AND_ORGANIZATION_ROLE ( 'creator' ) ;
#102 = DESIGN_CONTEXT ( 'detailed design', #95, 'design' ) ;
#103 = AXIS2_PLACEMENT_3D ( 'NONE', #97, #86, #27 ) ;
#104 = LOCAL_TIME ( 16, 27, 39.00000000000000000, #144 ) ;
#105 = ORIENTED_EDGE ( 'NONE', *, *, #44, .F. ) ;
#106 = DATE_AND_TIME ( #148, #104 ) ;
#107 = DIRECTION ( 'NONE',  ( 0.0000000000000000000, -0.0000000000000000000, -1.000000000000000000 ) ) ;
#108 = APPROVAL_DATE_TIME ( #149, #9 ) ;
#109 = APPROVAL_ROLE ( '' ) ;
#110 = AXIS2_PLACEMENT_3D ( 'NONE', #126, #140, #114 ) ;
#111 = VERTEX_POINT ( 'NONE', #61 ) ;
#112 = DIRECTION ( 'NONE',  ( 0.0000000000000000000, 0.0000000000000000000, -1.000000000000000000 ) ) ;
#113 = CC_DESIGN_SECURITY_CLASSIFICATION ( #67, ( #174 ) ) ;
#114 = DIRECTION ( 'NONE',  ( 0.0000000000000000000, 0.0000000000000000000, -1.000000000000000000 ) ) ;
#115 = APPROVAL_PERSON_ORGANIZATION ( #153, #9, #132 ) ;
#116 = CC_DESIGN_PERSON_AND_ORGANIZATION_ASSIGNMENT ( #37, #25, ( #65 ) ) ;
#117 = COORDINATED_UNIVERSAL_TIME_OFFSET ( 1, 0, .AHEAD. ) ;
#118 = COORDINATED_UNIVERSAL_TIME_OFFSET ( 1, 0, .AHEAD. ) ;
#119 = APPROVAL_STATUS ( 'not_yet_approved' ) ;
#120 = PRODUCT_RELATED_PRODUCT_CATEGORY ( 'detail', '', ( #65 ) ) ;
#121 = VECTOR ( 'NONE', #17, 1000.000000000000000 ) ;
#122 = PRODUCT_DEFINITION ( 'UNKNOWN', '', #174, #102 ) ;
#123 = CARTESIAN_POINT ( 'NONE',  ( 6.123233995736766282E-16, -1.500000000000000000, 5.000000000000000000 ) ) ;
#124 = CARTESIAN_POINT ( 'NONE',  ( 0.0000000000000000000, -1.500000000000000000, 0.0000000000000000000 ) ) ;
#125 = CIRCLE ( 'NONE', #18, 5.000000000000000000 ) ;
#126 = CARTESIAN_POINT ( 'NONE',  ( 0.0000000000000000000, 2.500000000000000000, 0.0000000000000000000 ) ) ;
#127 = APPROVAL_PERSON_ORGANIZATION ( #159, #133, #109 ) ;
#128 = CARTESIAN_POINT ( 'NONE',  ( 0.0000000000000000000, 2.500000000000000000, 0.0000000000000000000 ) ) ;
#129 = EDGE_CURVE ( 'NONE', #161, #111, #162, .T. ) ;
#130 = CYLINDRICAL_SURFACE ( 'NONE', #110, 5.000000000000000000 ) ;
#131 = VERTEX_POINT ( 'NONE', #123 ) ;
#132 = APPROVAL_ROLE ( '' ) ;
#133 = APPROVAL ( #8, 'UNSPECIFIED' ) ;
#134 =( NAMED_UNIT ( * ) SI_UNIT ( $, .STERADIAN. ) SOLID_ANGLE_UNIT ( ) );
#135 = FACE_OUTER_BOUND ( 'NONE', #146, .T. ) ;
#136 = ORIENTED_EDGE ( 'NONE', *, *, #1, .F. ) ;
#137 = ADVANCED_FACE ( 'NONE', ( #30 ), #33, .T. ) ;
#138 = CARTESIAN_POINT ( 'NONE',  ( 0.0000000000000000000, -1.500000000000000000, 0.0000000000000000000 ) ) ;
#139 = CARTESIAN_POINT ( 'NONE',  ( 6.123233995736766282E-16, 2.500000000000000000, 5.000000000000000000 ) ) ;
#140 = DIRECTION ( 'NONE',  ( -0.0000000000000000000, -1.000000000000000000, -0.0000000000000000000 ) ) ;
#141 = ADVANCED_BREP_SHAPE_REPRESENTATION ( '07264500d', ( #36, #103 ), #6 ) ;
#142 = DIRECTION ( 'NONE',  ( 0.0000000000000000000, 0.0000000000000000000, 1.000000000000000000 ) ) ;
#143 = LOCAL_TIME ( 16, 27, 39.00000000000000000, #5 ) ;
#144 = COORDINATED_UNIVERSAL_TIME_OFFSET ( 1, 0, .AHEAD. ) ;
#145 = CC_DESIGN_APPROVAL ( #133, ( #122 ) ) ;
#146 = EDGE_LOOP ( 'NONE', ( #156, #74, #3, #105 ) ) ;
#147 = AXIS2_PLACEMENT_3D ( 'NONE', #12, #71, #24 ) ;
#148 = CALENDAR_DATE ( 2020, 8, 8 ) ;
#149 = DATE_AND_TIME ( #14, #49 ) ;
#150 = PERSON_AND_ORGANIZATION_ROLE ( 'design_supplier' ) ;
#151 = ORIENTED_EDGE ( 'NONE', *, *, #44, .T. ) ;
#152 = DIRECTION ( 'NONE',  ( 0.0000000000000000000, 0.0000000000000000000, -1.000000000000000000 ) ) ;
#153 = PERSON_AND_ORGANIZATION ( #13, #21 ) ;
#154 = CARTESIAN_POINT ( 'NONE',  ( 0.0000000000000000000, -1.500000000000000000, 0.0000000000000000000 ) ) ;
#155 = CC_DESIGN_PERSON_AND_ORGANIZATION_ASSIGNMENT ( #160, #101, ( #122 ) ) ;
#156 = ORIENTED_EDGE ( 'NONE', *, *, #129, .F. ) ;
#157 = DIRECTION ( 'NONE',  ( -0.0000000000000000000, -1.000000000000000000, -0.0000000000000000000 ) ) ;
#158 = DIRECTION ( 'NONE',  ( 0.0000000000000000000, 0.0000000000000000000, -1.000000000000000000 ) ) ;
#159 = PERSON_AND_ORGANIZATION ( #13, #21 ) ;
#160 = PERSON_AND_ORGANIZATION ( #13, #21 ) ;
#161 = VERTEX_POINT ( 'NONE', #139 ) ;
#162 = CIRCLE ( 'NONE', #60, 5.000000000000000000 ) ;
#163 = SHAPE_DEFINITION_REPRESENTATION ( #39, #141 ) ;
#164 = EDGE_CURVE ( 'NONE', #111, #161, #62, .T. ) ;
#165 = PERSON_AND_ORGANIZATION_ROLE ( 'classification_officer' ) ;
#166 = CC_DESIGN_DATE_AND_TIME_ASSIGNMENT ( #16, #32, ( #122 ) ) ;
#167 = DATE_AND_TIME ( #56, #168 ) ;
#168 = LOCAL_TIME ( 16, 27, 39.00000000000000000, #117 ) ;
#169 = AXIS2_PLACEMENT_3D ( 'NONE', #28, #157, #158 ) ;
#170 = CIRCLE ( 'NONE', #82, 5.000000000000000000 ) ;
#171 = DIRECTION ( 'NONE',  ( 0.0000000000000000000, 1.000000000000000000, 0.0000000000000000000 ) ) ;
#172 = MECHANICAL_CONTEXT ( 'NONE', #10, 'mechanical' ) ;
#173 = ORIENTED_EDGE ( 'NONE', *, *, #164, .F. ) ;
#174 = PRODUCT_DEFINITION_FORMATION_WITH_SPECIFIED_SOURCE ( 'ANY', '', #65, .NOT_KNOWN. ) ;
#175 = APPROVAL_DATE_TIME ( #167, #133 ) ;
ENDSEC;
END-ISO-10303-21;
