ISO-10303-21;
HEADER;
FILE_DESCRIPTION (( 'STEP AP203' ),
    '1' );
FILE_NAME ('00114500d.STEP',
    '2020-07-07T07:29:13',
    ( '' ),
    ( '' ),
    'SwSTEP 2.0',
    'SolidWorks 2018',
    '' );
FILE_SCHEMA (( 'CONFIG_CONTROL_DESIGN' ));
ENDSEC;

DATA;
#1 = ORIENTED_EDGE ( 'NONE', *, *, #71, .F. ) ;
#2 = PERSON_AND_ORGANIZATION ( #280, #213 ) ;
#3 = PRODUCT_DEFINITION_FORMATION_WITH_SPECIFIED_SOURCE ( 'ANY', '', #164, .NOT_KNOWN. ) ;
#4 = DIRECTION ( 'NONE',  ( 0.0000000000000000000, -1.000000000000000000, 0.0000000000000000000 ) ) ;
#5 = ORIENTED_EDGE ( 'NONE', *, *, #71, .T. ) ;
#6 = APPROVAL_PERSON_ORGANIZATION ( #129, #20, #30 ) ;
#7 = PERSON_AND_ORGANIZATION_ROLE ( 'design_supplier' ) ;
#8 = ORIENTED_EDGE ( 'NONE', *, *, #54, .F. ) ;
#9 = PERSON_AND_ORGANIZATION ( #280, #213 ) ;
#10 = DIRECTION ( 'NONE',  ( 0.0000000000000000000, 0.0000000000000000000, 1.000000000000000000 ) ) ;
#11 = AXIS2_PLACEMENT_3D ( 'NONE', #149, #297, #263 ) ;
#12 = CARTESIAN_POINT ( 'NONE',  ( 0.0000000000000000000, 6.400000000000000355, 0.0000000000000000000 ) ) ;
#13 = CARTESIAN_POINT ( 'NONE',  ( 1.224646799147353256E-15, 6.400000000000000355, 10.00000000000000000 ) ) ;
#14 = DIRECTION ( 'NONE',  ( -0.0000000000000000000, 1.000000000000000000, -0.0000000000000000000 ) ) ;
#15 = EDGE_CURVE ( 'NONE', #159, #97, #186, .T. ) ;
#16 = VERTEX_POINT ( 'NONE', #300 ) ;
#17 = DIRECTION ( 'NONE',  ( 0.0000000000000000000, -1.000000000000000000, 0.0000000000000000000 ) ) ;
#18 = CLOSED_SHELL ( 'NONE', ( #258, #236, #305, #121, #43, #211, #146, #169, #22 ) ) ;
#19 = CALENDAR_DATE ( 2020, 7, 7 ) ;
#20 = APPROVAL ( #199, 'UNSPECIFIED' ) ;
#21 = AXIS2_PLACEMENT_3D ( 'NONE', #262, #4, #195 ) ;
#22 = ADVANCED_FACE ( 'NONE', ( #244 ), #100, .T. ) ;
#23 = VERTEX_POINT ( 'NONE', #231 ) ;
#24 = PERSON_AND_ORGANIZATION ( #280, #213 ) ;
#25 = LINE ( 'NONE', #247, #270 ) ;
#26 = DIRECTION ( 'NONE',  ( 0.0000000000000000000, 0.7071067811865526798, 0.7071067811865422437 ) ) ;
#27 = VERTEX_POINT ( 'NONE', #40 ) ;
#28 = DIRECTION ( 'NONE',  ( -0.0000000000000000000, -1.000000000000000000, -0.0000000000000000000 ) ) ;
#29 = ORIENTED_EDGE ( 'NONE', *, *, #68, .T. ) ;
#30 = APPROVAL_ROLE ( '' ) ;
#31 = APPLICATION_CONTEXT ( 'configuration controlled 3d designs of mechanical parts and assemblies' ) ;
#32 = DIRECTION ( 'NONE',  ( 0.0000000000000000000, 0.0000000000000000000, -1.000000000000000000 ) ) ;
#33 = EDGE_LOOP ( 'NONE', ( #283, #8 ) ) ;
#34 = VECTOR ( 'NONE', #302, 1000.000000000000000 ) ;
#35 = CARTESIAN_POINT ( 'NONE',  ( 0.0000000000000000000, -8.500000000000000000, 0.0000000000000000000 ) ) ;
#36 = CC_DESIGN_APPROVAL ( #20, ( #3 ) ) ;
#37 = DIRECTION ( 'NONE',  ( 0.0000000000000000000, 0.0000000000000000000, 1.000000000000000000 ) ) ;
#38 = EDGE_LOOP ( 'NONE', ( #1, #52, #161, #132 ) ) ;
#39 = EDGE_CURVE ( 'NONE', #212, #286, #256, .T. ) ;
#40 = CARTESIAN_POINT ( 'NONE',  ( 1.224646799147353256E-15, 0.0000000000000000000, 10.00000000000000000 ) ) ;
#41 = CARTESIAN_POINT ( 'NONE',  ( 0.0000000000000000000, 6.400000000000000355, 0.0000000000000000000 ) ) ;
#42 = CIRCLE ( 'NONE', #209, 10.00000000000000000 ) ;
#43 = ADVANCED_FACE ( 'NONE', ( #124 ), #233, .T. ) ;
#44 = ORIENTED_EDGE ( 'NONE', *, *, #39, .F. ) ;
#45 = PERSON_AND_ORGANIZATION ( #280, #213 ) ;
#46 = DIRECTION ( 'NONE',  ( 0.0000000000000000000, 0.0000000000000000000, 1.000000000000000000 ) ) ;
#47 = CARTESIAN_POINT ( 'NONE',  ( 0.0000000000000000000, -8.149999999999993250, 0.0000000000000000000 ) ) ;
#48 = VECTOR ( 'NONE', #239, 1000.000000000000000 ) ;
#49 = DIRECTION ( 'NONE',  ( 0.0000000000000000000, -1.000000000000000000, 0.0000000000000000000 ) ) ;
#50 = CC_DESIGN_PERSON_AND_ORGANIZATION_ASSIGNMENT ( #9, #180, ( #3 ) ) ;
#51 = DIRECTION ( 'NONE',  ( 0.0000000000000000000, 1.000000000000000000, 0.0000000000000000000 ) ) ;
#52 = ORIENTED_EDGE ( 'NONE', *, *, #15, .F. ) ;
#53 = APPROVAL_DATE_TIME ( #122, #248 ) ;
#54 = EDGE_CURVE ( 'NONE', #27, #286, #224, .T. ) ;
#55 = DATE_TIME_ROLE ( 'creation_date' ) ;
#56 = APPLICATION_PROTOCOL_DEFINITION ( 'international standard', 'config_control_design', 1994, #31 ) ;
#57 = FACE_OUTER_BOUND ( 'NONE', #142, .T. ) ;
#58 = AXIS2_PLACEMENT_3D ( 'NONE', #296, #135, #276 ) ;
#59 = DIRECTION ( 'NONE',  ( 0.0000000000000000000, -0.0000000000000000000, 1.000000000000000000 ) ) ;
#60 = CARTESIAN_POINT ( 'NONE',  ( 0.0000000000000000000, 0.0000000000000000000, 0.0000000000000000000 ) ) ;
#61 = CALENDAR_DATE ( 2020, 7, 7 ) ;
#62 = ORIENTED_EDGE ( 'NONE', *, *, #123, .T. ) ;
#63 = DATE_AND_TIME ( #139, #67 ) ;
#64 = CC_DESIGN_PERSON_AND_ORGANIZATION_ASSIGNMENT ( #2, #7, ( #3 ) ) ;
#65 = EDGE_LOOP ( 'NONE', ( #178, #289, #79, #188 ) ) ;
#66 = DATE_AND_TIME ( #223, #137 ) ;
#67 = LOCAL_TIME ( 9, 29, 13.00000000000000000, #253 ) ;
#68 = EDGE_CURVE ( 'NONE', #212, #228, #42, .T. ) ;
#69 = EDGE_LOOP ( 'NONE', ( #198, #148, #196, #44 ) ) ;
#70 = CARTESIAN_POINT ( 'NONE',  ( 0.0000000000000000000, 6.400000000000000355, 0.0000000000000000000 ) ) ;
#71 = EDGE_CURVE ( 'NONE', #97, #136, #218, .T. ) ;
#72 = APPROVAL_DATE_TIME ( #63, #20 ) ;
#73 =( GEOMETRIC_REPRESENTATION_CONTEXT ( 3 ) GLOBAL_UNCERTAINTY_ASSIGNED_CONTEXT ( ( #143 ) ) GLOBAL_UNIT_ASSIGNED_CONTEXT ( ( #272, #246, #83 ) ) REPRESENTATION_CONTEXT ( 'NONE', 'WORKASPACE' ) );
#74 = DIRECTION ( 'NONE',  ( 0.0000000000000000000, 0.0000000000000000000, -1.000000000000000000 ) ) ;
#75 = AXIS2_PLACEMENT_3D ( 'NONE', #41, #208, #229 ) ;
#76 = ORIENTED_EDGE ( 'NONE', *, *, #147, .T. ) ;
#77 = CIRCLE ( 'NONE', #172, 10.00000000000000000 ) ;
#78 = EDGE_CURVE ( 'NONE', #136, #16, #191, .T. ) ;
#79 = ORIENTED_EDGE ( 'NONE', *, *, #92, .T. ) ;
#80 = FACE_OUTER_BOUND ( 'NONE', #255, .T. ) ;
#81 = APPROVAL_ROLE ( '' ) ;
#82 = DESIGN_CONTEXT ( 'detailed design', #271, 'design' ) ;
#83 =( NAMED_UNIT ( * ) SI_UNIT ( $, .STERADIAN. ) SOLID_ANGLE_UNIT ( ) );
#84 = AXIS2_PLACEMENT_3D ( 'NONE', #95, #17, #165 ) ;
#85 = CARTESIAN_POINT ( 'NONE',  ( 0.0000000000000000000, 0.0000000000000000000, -10.00000000000000000 ) ) ;
#86 = PLANE ( 'NONE',  #94 ) ;
#87 = SECURITY_CLASSIFICATION ( '', '', #156 ) ;
#88 = ORIENTED_EDGE ( 'NONE', *, *, #96, .T. ) ;
#89 = EDGE_CURVE ( 'NONE', #228, #212, #176, .T. ) ;
#90 = COORDINATED_UNIVERSAL_TIME_OFFSET ( 1, 0, .AHEAD. ) ;
#91 = SHAPE_DEFINITION_REPRESENTATION ( #134, #173 ) ;
#92 = EDGE_CURVE ( 'NONE', #16, #23, #287, .T. ) ;
#93 = CARTESIAN_POINT ( 'NONE',  ( 0.0000000000000000000, 6.400000000000000355, -10.00000000000000000 ) ) ;
#94 = AXIS2_PLACEMENT_3D ( 'NONE', #111, #251, #59 ) ;
#95 = CARTESIAN_POINT ( 'NONE',  ( 0.0000000000000000000, -8.500000000000000000, 0.0000000000000000000 ) ) ;
#96 = EDGE_CURVE ( 'NONE', #97, #159, #293, .T. ) ;
#97 = VERTEX_POINT ( 'NONE', #126 ) ;
#98 = DIRECTION ( 'NONE',  ( 0.0000000000000000000, 1.000000000000000000, 0.0000000000000000000 ) ) ;
#99 = CARTESIAN_POINT ( 'NONE',  ( 2.449293598294706414E-16, -8.149999999999993250, -2.000000000000000000 ) ) ;
#100 = CONICAL_SURFACE ( 'NONE', #117, 1.649999999999998579, 0.7853981633974409515 ) ;
#101 = CARTESIAN_POINT ( 'NONE',  ( 0.0000000000000000000, 0.0000000000000000000, 0.0000000000000000000 ) ) ;
#102 = CC_DESIGN_PERSON_AND_ORGANIZATION_ASSIGNMENT ( #24, #291, ( #87 ) ) ;
#103 = DIRECTION ( 'NONE',  ( 0.0000000000000000000, 0.0000000000000000000, -1.000000000000000000 ) ) ;
#104 = VERTEX_POINT ( 'NONE', #285 ) ;
#105 = APPROVAL_ROLE ( '' ) ;
#106 = APPLICATION_PROTOCOL_DEFINITION ( 'international standard', 'config_control_design', 1994, #271 ) ;
#107 = EDGE_CURVE ( 'NONE', #104, #23, #183, .T. ) ;
#108 = AXIS2_PLACEMENT_3D ( 'NONE', #294, #273, #203 ) ;
#109 = VECTOR ( 'NONE', #192, 1000.000000000000114 ) ;
#110 = DIRECTION ( 'NONE',  ( -0.0000000000000000000, -1.000000000000000000, -0.0000000000000000000 ) ) ;
#111 = CARTESIAN_POINT ( 'NONE',  ( 0.0000000000000000000, 0.0000000000000000000, 0.0000000000000000000 ) ) ;
#112 = EDGE_LOOP ( 'NONE', ( #29, #205 ) ) ;
#113 = COORDINATED_UNIVERSAL_TIME_OFFSET ( 1, 0, .AHEAD. ) ;
#114 = EDGE_CURVE ( 'NONE', #23, #104, #116, .T. ) ;
#115 = MANIFOLD_SOLID_BREP ( 'Fase1', #18 ) ;
#116 = CIRCLE ( 'NONE', #210, 2.000000000000000000 ) ;
#117 = AXIS2_PLACEMENT_3D ( 'NONE', #230, #141, #145 ) ;
#118 = CARTESIAN_POINT ( 'NONE',  ( 0.0000000000000000000, 0.0000000000000000000, 0.0000000000000000000 ) ) ;
#119 = CC_DESIGN_DATE_AND_TIME_ASSIGNMENT ( #175, #131, ( #87 ) ) ;
#120 = ORIENTED_EDGE ( 'NONE', *, *, #130, .F. ) ;
#121 = ADVANCED_FACE ( 'NONE', ( #232 ), #168, .T. ) ;
#122 = DATE_AND_TIME ( #299, #238 ) ;
#123 = EDGE_CURVE ( 'NONE', #16, #136, #245, .T. ) ;
#124 = FACE_OUTER_BOUND ( 'NONE', #112, .T. ) ;
#125 = FACE_OUTER_BOUND ( 'NONE', #65, .T. ) ;
#126 = CARTESIAN_POINT ( 'NONE',  ( 2.234980408443918722E-16, -8.500000000000000000, -1.649999999999998579 ) ) ;
#127 = AXIS2_PLACEMENT_3D ( 'NONE', #35, #160, #226 ) ;
#128 = CARTESIAN_POINT ( 'NONE',  ( 0.0000000000000000000, -8.149999999999993250, 0.0000000000000000000 ) ) ;
#129 = PERSON_AND_ORGANIZATION ( #280, #213 ) ;
#130 = EDGE_CURVE ( 'NONE', #159, #16, #240, .T. ) ;
#131 = DATE_TIME_ROLE ( 'classification_date' ) ;
#132 = ORIENTED_EDGE ( 'NONE', *, *, #78, .F. ) ;
#133 = PERSON_AND_ORGANIZATION_ROLE ( 'design_owner' ) ;
#134 = PRODUCT_DEFINITION_SHAPE ( 'NONE', 'NONE',  #234 ) ;
#135 = DIRECTION ( 'NONE',  ( 0.0000000000000000000, -1.000000000000000000, 0.0000000000000000000 ) ) ;
#136 = VERTEX_POINT ( 'NONE', #99 ) ;
#137 = LOCAL_TIME ( 9, 29, 13.00000000000000000, #90 ) ;
#138 = APPROVAL ( #269, 'UNSPECIFIED' ) ;
#139 = CALENDAR_DATE ( 2020, 7, 7 ) ;
#140 = CARTESIAN_POINT ( 'NONE',  ( 2.449293598294706414E-16, -8.500000000000000000, -2.000000000000000000 ) ) ;
#141 = DIRECTION ( 'NONE',  ( 0.0000000000000000000, 1.000000000000000000, 0.0000000000000000000 ) ) ;
#142 = EDGE_LOOP ( 'NONE', ( #268, #5, #171, #120 ) ) ;
#143 = UNCERTAINTY_MEASURE_WITH_UNIT (LENGTH_MEASURE( 1.000000000000000082E-05 ), #272, 'distance_accuracy_value', 'NONE');
#144 = FACE_OUTER_BOUND ( 'NONE', #69, .T. ) ;
#145 = DIRECTION ( 'NONE',  ( 0.0000000000000000000, 0.0000000000000000000, 1.000000000000000000 ) ) ;
#146 = ADVANCED_FACE ( 'NONE', ( #125 ), #197, .T. ) ;
#147 = EDGE_CURVE ( 'NONE', #286, #27, #77, .T. ) ;
#148 = ORIENTED_EDGE ( 'NONE', *, *, #267, .T. ) ;
#149 = CARTESIAN_POINT ( 'NONE',  ( 0.0000000000000000000, -8.500000000000000000, 0.0000000000000000000 ) ) ;
#150 = ORIENTED_EDGE ( 'NONE', *, *, #39, .T. ) ;
#151 = LOCAL_TIME ( 9, 29, 13.00000000000000000, #206 ) ;
#152 = DIRECTION ( 'NONE',  ( 0.0000000000000000000, -1.000000000000000000, 0.0000000000000000000 ) ) ;
#153 = CC_DESIGN_APPROVAL ( #138, ( #87 ) ) ;
#154 = ORIENTED_EDGE ( 'NONE', *, *, #92, .F. ) ;
#155 = CONICAL_SURFACE ( 'NONE', #108, 1.649999999999998579, 0.7853981633974409515 ) ;
#156 = SECURITY_CLASSIFICATION_LEVEL ( 'unclassified' ) ;
#157 = DIRECTION ( 'NONE',  ( 1.000000000000000000, 0.0000000000000000000, 0.0000000000000000000 ) ) ;
#158 = AXIS2_PLACEMENT_3D ( 'NONE', #12, #201, #32 ) ;
#159 = VERTEX_POINT ( 'NONE', #277 ) ;
#160 = DIRECTION ( 'NONE',  ( -0.0000000000000000000, 1.000000000000000000, -0.0000000000000000000 ) ) ;
#161 = ORIENTED_EDGE ( 'NONE', *, *, #130, .T. ) ;
#162 = EDGE_CURVE ( 'NONE', #136, #104, #257, .T. ) ;
#163 = APPROVAL_DATE_TIME ( #66, #138 ) ;
#164 = PRODUCT ( '00114500d', '00114500d', '', ( #292 ) ) ;
#165 = DIRECTION ( 'NONE',  ( 0.0000000000000000000, 0.0000000000000000000, -1.000000000000000000 ) ) ;
#166 = AXIS2_PLACEMENT_3D ( 'NONE', #47, #288, #261 ) ;
#167 = AXIS2_PLACEMENT_3D ( 'NONE', #128, #266, #103 ) ;
#168 = CYLINDRICAL_SURFACE ( 'NONE', #182, 10.00000000000000000 ) ;
#169 = ADVANCED_FACE ( 'NONE', ( #301 ), #227, .T. ) ;
#170 = CC_DESIGN_SECURITY_CLASSIFICATION ( #87, ( #3 ) ) ;
#171 = ORIENTED_EDGE ( 'NONE', *, *, #123, .F. ) ;
#172 = AXIS2_PLACEMENT_3D ( 'NONE', #60, #204, #37 ) ;
#173 = ADVANCED_BREP_SHAPE_REPRESENTATION ( '00114500d', ( #115, #202 ), #73 ) ;
#174 = DIRECTION ( 'NONE',  ( 0.0000000000000000000, 0.0000000000000000000, 1.000000000000000000 ) ) ;
#175 = DATE_AND_TIME ( #19, #151 ) ;
#176 = CIRCLE ( 'NONE', #193, 10.00000000000000000 ) ;
#177 = CARTESIAN_POINT ( 'NONE',  ( 0.0000000000000000000, -8.500000000000000000, 1.649999999999998579 ) ) ;
#178 = ORIENTED_EDGE ( 'NONE', *, *, #162, .F. ) ;
#179 = APPROVAL_PERSON_ORGANIZATION ( #290, #248, #81 ) ;
#180 = PERSON_AND_ORGANIZATION_ROLE ( 'creator' ) ;
#181 = CARTESIAN_POINT ( 'NONE',  ( 0.0000000000000000000, 0.0000000000000000000, 0.0000000000000000000 ) ) ;
#182 = AXIS2_PLACEMENT_3D ( 'NONE', #241, #28, #74 ) ;
#183 = CIRCLE ( 'NONE', #235, 2.000000000000000000 ) ;
#184 = PRODUCT_RELATED_PRODUCT_CATEGORY ( 'detail', '', ( #164 ) ) ;
#185 = COORDINATED_UNIVERSAL_TIME_OFFSET ( 1, 0, .AHEAD. ) ;
#186 = CIRCLE ( 'NONE', #84, 1.649999999999998579 ) ;
#187 = FACE_OUTER_BOUND ( 'NONE', #33, .T. ) ;
#188 = ORIENTED_EDGE ( 'NONE', *, *, #114, .T. ) ;
#189 = DATE_AND_TIME ( #61, #304 ) ;
#190 = EDGE_LOOP ( 'NONE', ( #250, #221, #150, #76 ) ) ;
#191 = CIRCLE ( 'NONE', #167, 2.000000000000000000 ) ;
#192 = DIRECTION ( 'NONE',  ( 8.659560562354868763E-17, 0.7071067811865526798, -0.7071067811865422437 ) ) ;
#193 = AXIS2_PLACEMENT_3D ( 'NONE', #220, #51, #174 ) ;
#194 = DIRECTION ( 'NONE',  ( 0.0000000000000000000, 0.0000000000000000000, -1.000000000000000000 ) ) ;
#195 = DIRECTION ( 'NONE',  ( 0.0000000000000000000, 0.0000000000000000000, -1.000000000000000000 ) ) ;
#196 = ORIENTED_EDGE ( 'NONE', *, *, #54, .T. ) ;
#197 = CYLINDRICAL_SURFACE ( 'NONE', #11, 2.000000000000000000 ) ;
#198 = ORIENTED_EDGE ( 'NONE', *, *, #89, .F. ) ;
#199 = APPROVAL_STATUS ( 'not_yet_approved' ) ;
#200 = VECTOR ( 'NONE', #14, 1000.000000000000000 ) ;
#201 = DIRECTION ( 'NONE',  ( -0.0000000000000000000, -1.000000000000000000, -0.0000000000000000000 ) ) ;
#202 = AXIS2_PLACEMENT_3D ( 'NONE', #181, #10, #157 ) ;
#203 = DIRECTION ( 'NONE',  ( 0.0000000000000000000, 0.0000000000000000000, 1.000000000000000000 ) ) ;
#204 = DIRECTION ( 'NONE',  ( 0.0000000000000000000, 1.000000000000000000, 0.0000000000000000000 ) ) ;
#205 = ORIENTED_EDGE ( 'NONE', *, *, #89, .T. ) ;
#206 = COORDINATED_UNIVERSAL_TIME_OFFSET ( 1, 0, .AHEAD. ) ;
#207 = CYLINDRICAL_SURFACE ( 'NONE', #127, 2.000000000000000000 ) ;
#208 = DIRECTION ( 'NONE',  ( 0.0000000000000000000, 1.000000000000000000, 0.0000000000000000000 ) ) ;
#209 = AXIS2_PLACEMENT_3D ( 'NONE', #70, #98, #215 ) ;
#210 = AXIS2_PLACEMENT_3D ( 'NONE', #219, #49, #194 ) ;
#211 = ADVANCED_FACE ( 'NONE', ( #260, #187 ), #86, .F. ) ;
#212 = VERTEX_POINT ( 'NONE', #249 ) ;
#213 = ORGANIZATION ( 'UNSPECIFIED', 'UNSPECIFIED', '' ) ;
#214 = CARTESIAN_POINT ( 'NONE',  ( 2.020667218593131029E-16, -8.500000000000000000, -1.649999999999998579 ) ) ;
#215 = DIRECTION ( 'NONE',  ( 0.0000000000000000000, 0.0000000000000000000, 1.000000000000000000 ) ) ;
#216 = ORIENTED_EDGE ( 'NONE', *, *, #107, .F. ) ;
#217 = CC_DESIGN_PERSON_AND_ORGANIZATION_ASSIGNMENT ( #45, #133, ( #164 ) ) ;
#218 = LINE ( 'NONE', #214, #109 ) ;
#219 = CARTESIAN_POINT ( 'NONE',  ( 0.0000000000000000000, 0.0000000000000000000, 0.0000000000000000000 ) ) ;
#220 = CARTESIAN_POINT ( 'NONE',  ( 0.0000000000000000000, 6.400000000000000355, 0.0000000000000000000 ) ) ;
#221 = ORIENTED_EDGE ( 'NONE', *, *, #68, .F. ) ;
#222 = PERSON_AND_ORGANIZATION_ROLE ( 'creator' ) ;
#223 = CALENDAR_DATE ( 2020, 7, 7 ) ;
#224 = CIRCLE ( 'NONE', #225, 10.00000000000000000 ) ;
#225 = AXIS2_PLACEMENT_3D ( 'NONE', #118, #254, #46 ) ;
#226 = DIRECTION ( 'NONE',  ( 0.0000000000000000000, 0.0000000000000000000, 1.000000000000000000 ) ) ;
#227 = PLANE ( 'NONE',  #58 ) ;
#228 = VERTEX_POINT ( 'NONE', #13 ) ;
#229 = DIRECTION ( 'NONE',  ( 0.0000000000000000000, -0.0000000000000000000, 1.000000000000000000 ) ) ;
#230 = CARTESIAN_POINT ( 'NONE',  ( 0.0000000000000000000, -8.500000000000000000, 0.0000000000000000000 ) ) ;
#231 = CARTESIAN_POINT ( 'NONE',  ( 0.0000000000000000000, 0.0000000000000000000, 2.000000000000000000 ) ) ;
#232 = FACE_OUTER_BOUND ( 'NONE', #190, .T. ) ;
#233 = PLANE ( 'NONE',  #75 ) ;
#234 = PRODUCT_DEFINITION ( 'UNKNOWN', '', #3, #82 ) ;
#235 = AXIS2_PLACEMENT_3D ( 'NONE', #101, #152, #265 ) ;
#236 = ADVANCED_FACE ( 'NONE', ( #80 ), #207, .T. ) ;
#237 = EDGE_LOOP ( 'NONE', ( #274, #88 ) ) ;
#238 = LOCAL_TIME ( 9, 29, 13.00000000000000000, #113 ) ;
#239 = DIRECTION ( 'NONE',  ( -0.0000000000000000000, 1.000000000000000000, -0.0000000000000000000 ) ) ;
#240 = LINE ( 'NONE', #177, #281 ) ;
#241 = CARTESIAN_POINT ( 'NONE',  ( 0.0000000000000000000, 6.400000000000000355, 0.0000000000000000000 ) ) ;
#242 = PERSON_AND_ORGANIZATION ( #280, #213 ) ;
#243 = APPROVAL_STATUS ( 'not_yet_approved' ) ;
#244 = FACE_OUTER_BOUND ( 'NONE', #38, .T. ) ;
#245 = CIRCLE ( 'NONE', #166, 2.000000000000000000 ) ;
#246 =( NAMED_UNIT ( * ) PLANE_ANGLE_UNIT ( ) SI_UNIT ( $, .RADIAN. ) );
#247 = CARTESIAN_POINT ( 'NONE',  ( 1.224646799147353256E-15, 6.400000000000000355, 10.00000000000000000 ) ) ;
#248 = APPROVAL ( #243, 'UNSPECIFIED' ) ;
#249 = CARTESIAN_POINT ( 'NONE',  ( 0.0000000000000000000, 6.400000000000000355, -10.00000000000000000 ) ) ;
#250 = ORIENTED_EDGE ( 'NONE', *, *, #267, .F. ) ;
#251 = DIRECTION ( 'NONE',  ( 0.0000000000000000000, 1.000000000000000000, 0.0000000000000000000 ) ) ;
#252 = PERSON_AND_ORGANIZATION ( #280, #213 ) ;
#253 = COORDINATED_UNIVERSAL_TIME_OFFSET ( 1, 0, .AHEAD. ) ;
#254 = DIRECTION ( 'NONE',  ( 0.0000000000000000000, 1.000000000000000000, 0.0000000000000000000 ) ) ;
#255 = EDGE_LOOP ( 'NONE', ( #62, #259, #298, #154 ) ) ;
#256 = LINE ( 'NONE', #93, #34 ) ;
#257 = LINE ( 'NONE', #140, #200 ) ;
#258 = ADVANCED_FACE ( 'NONE', ( #57 ), #155, .T. ) ;
#259 = ORIENTED_EDGE ( 'NONE', *, *, #162, .T. ) ;
#260 = FACE_BOUND ( 'NONE', #303, .T. ) ;
#261 = DIRECTION ( 'NONE',  ( 0.0000000000000000000, 0.0000000000000000000, -1.000000000000000000 ) ) ;
#262 = CARTESIAN_POINT ( 'NONE',  ( 0.0000000000000000000, -8.500000000000000000, 0.0000000000000000000 ) ) ;
#263 = DIRECTION ( 'NONE',  ( 0.0000000000000000000, 0.0000000000000000000, 1.000000000000000000 ) ) ;
#264 = CC_DESIGN_APPROVAL ( #248, ( #234 ) ) ;
#265 = DIRECTION ( 'NONE',  ( 0.0000000000000000000, 0.0000000000000000000, -1.000000000000000000 ) ) ;
#266 = DIRECTION ( 'NONE',  ( 0.0000000000000000000, 1.000000000000000000, 0.0000000000000000000 ) ) ;
#267 = EDGE_CURVE ( 'NONE', #228, #27, #25, .T. ) ;
#268 = ORIENTED_EDGE ( 'NONE', *, *, #96, .F. ) ;
#269 = APPROVAL_STATUS ( 'not_yet_approved' ) ;
#270 = VECTOR ( 'NONE', #110, 1000.000000000000000 ) ;
#271 = APPLICATION_CONTEXT ( 'configuration controlled 3d designs of mechanical parts and assemblies' ) ;
#272 =( LENGTH_UNIT ( ) NAMED_UNIT ( * ) SI_UNIT ( .MILLI., .METRE. ) );
#273 = DIRECTION ( 'NONE',  ( 0.0000000000000000000, 1.000000000000000000, 0.0000000000000000000 ) ) ;
#274 = ORIENTED_EDGE ( 'NONE', *, *, #15, .T. ) ;
#275 = APPROVAL_PERSON_ORGANIZATION ( #252, #138, #105 ) ;
#276 = DIRECTION ( 'NONE',  ( 0.0000000000000000000, -0.0000000000000000000, -1.000000000000000000 ) ) ;
#277 = CARTESIAN_POINT ( 'NONE',  ( 0.0000000000000000000, -8.500000000000000000, 1.649999999999998579 ) ) ;
#278 = ORIENTED_EDGE ( 'NONE', *, *, #114, .F. ) ;
#279 = CYLINDRICAL_SURFACE ( 'NONE', #158, 10.00000000000000000 ) ;
#280 = PERSON ( 'UNSPECIFIED', 'UNSPECIFIED', 'UNSPECIFIED', ('UNSPECIFIED'), ('UNSPECIFIED'), ('UNSPECIFIED') ) ;
#281 = VECTOR ( 'NONE', #26, 1000.000000000000114 ) ;
#282 = CC_DESIGN_PERSON_AND_ORGANIZATION_ASSIGNMENT ( #242, #222, ( #234 ) ) ;
#283 = ORIENTED_EDGE ( 'NONE', *, *, #147, .F. ) ;
#284 = CARTESIAN_POINT ( 'NONE',  ( 0.0000000000000000000, -8.500000000000000000, 2.000000000000000000 ) ) ;
#285 = CARTESIAN_POINT ( 'NONE',  ( 2.449293598294706414E-16, 0.0000000000000000000, -2.000000000000000000 ) ) ;
#286 = VERTEX_POINT ( 'NONE', #85 ) ;
#287 = LINE ( 'NONE', #284, #48 ) ;
#288 = DIRECTION ( 'NONE',  ( 0.0000000000000000000, 1.000000000000000000, 0.0000000000000000000 ) ) ;
#289 = ORIENTED_EDGE ( 'NONE', *, *, #78, .T. ) ;
#290 = PERSON_AND_ORGANIZATION ( #280, #213 ) ;
#291 = PERSON_AND_ORGANIZATION_ROLE ( 'classification_officer' ) ;
#292 = MECHANICAL_CONTEXT ( 'NONE', #31, 'mechanical' ) ;
#293 = CIRCLE ( 'NONE', #21, 1.649999999999998579 ) ;
#294 = CARTESIAN_POINT ( 'NONE',  ( 0.0000000000000000000, -8.500000000000000000, 0.0000000000000000000 ) ) ;
#295 = CC_DESIGN_DATE_AND_TIME_ASSIGNMENT ( #189, #55, ( #234 ) ) ;
#296 = CARTESIAN_POINT ( 'NONE',  ( 0.0000000000000000000, -8.500000000000000000, 0.0000000000000000000 ) ) ;
#297 = DIRECTION ( 'NONE',  ( -0.0000000000000000000, 1.000000000000000000, -0.0000000000000000000 ) ) ;
#298 = ORIENTED_EDGE ( 'NONE', *, *, #107, .T. ) ;
#299 = CALENDAR_DATE ( 2020, 7, 7 ) ;
#300 = CARTESIAN_POINT ( 'NONE',  ( 0.0000000000000000000, -8.149999999999993250, 2.000000000000000000 ) ) ;
#301 = FACE_OUTER_BOUND ( 'NONE', #237, .T. ) ;
#302 = DIRECTION ( 'NONE',  ( -0.0000000000000000000, -1.000000000000000000, -0.0000000000000000000 ) ) ;
#303 = EDGE_LOOP ( 'NONE', ( #278, #216 ) ) ;
#304 = LOCAL_TIME ( 9, 29, 13.00000000000000000, #185 ) ;
#305 = ADVANCED_FACE ( 'NONE', ( #144 ), #279, .T. ) ;
ENDSEC;
END-ISO-10303-21;
