ISO-10303-21;
HEADER;
FILE_DESCRIPTION (( 'STEP AP203' ),
    '1' );
FILE_NAME ('08054500d.STEP',
    '2019-03-19T08:08:36',
    ( '' ),
    ( '' ),
    'SwSTEP 2.0',
    'SolidWorks 2017',
    '' );
FILE_SCHEMA (( 'CONFIG_CONTROL_DESIGN' ));
ENDSEC;

DATA;
#1 = PERSON_AND_ORGANIZATION ( #8, #53 ) ;
#2 = DIRECTION ( 'NONE',  ( -0.0000000000000000000, 0.0000000000000000000, 1.000000000000000000 ) ) ;
#3 = ORIENTED_EDGE ( 'NONE', *, *, #216, .T. ) ;
#4 = APPROVAL_ROLE ( '' ) ;
#5 =( NAMED_UNIT ( * ) PLANE_ANGLE_UNIT ( ) SI_UNIT ( $, .RADIAN. ) );
#6 = ADVANCED_FACE ( 'NONE', ( #32 ), #138, .F. ) ;
#7 = CARTESIAN_POINT ( 'NONE',  ( -139.0000000000000600, -12.24999999999997700, 0.0000000000000000000 ) ) ;
#8 = PERSON ( 'UNSPECIFIED', 'UNSPECIFIED', 'UNSPECIFIED', ('UNSPECIFIED'), ('UNSPECIFIED'), ('UNSPECIFIED') ) ;
#9 = MANIFOLD_SOLID_BREP ( 'Aufsatz-Linear austragen1', #82 ) ;
#10 = VECTOR ( 'NONE', #37, 1000.000000000000000 ) ;
#11 = VECTOR ( 'NONE', #227, 1000.000000000000000 ) ;
#12 = EDGE_CURVE ( 'NONE', #87, #13, #34, .T. ) ;
#13 = VERTEX_POINT ( 'NONE', #220 ) ;
#14 = CARTESIAN_POINT ( 'NONE',  ( 0.0000000000000000000, 0.0000000000000000000, 0.0000000000000000000 ) ) ;
#15 = CARTESIAN_POINT ( 'NONE',  ( 138.9999999999999400, -12.24999999999997700, 11.00000000000000000 ) ) ;
#16 = EDGE_LOOP ( 'NONE', ( #218, #186, #217, #115 ) ) ;
#17 = APPROVAL_ROLE ( '' ) ;
#18 = DIRECTION ( 'NONE',  ( 1.132880637372608700E-015, 1.000000000000000000, -0.0000000000000000000 ) ) ;
#19 = APPROVAL_STATUS ( 'not_yet_approved' ) ;
#20 = PLANE ( 'NONE',  #228 ) ;
#21 = DIRECTION ( 'NONE',  ( 0.0000000000000000000, 0.0000000000000000000, 1.000000000000000000 ) ) ;
#22 = ORIENTED_EDGE ( 'NONE', *, *, #26, .T. ) ;
#23 = DIRECTION ( 'NONE',  ( -1.132880637372608700E-015, -1.000000000000000000, 0.0000000000000000000 ) ) ;
#24 = ADVANCED_FACE ( 'NONE', ( #83 ), #113, .T. ) ;
#25 = DIRECTION ( 'NONE',  ( -1.132880637372608700E-015, -1.000000000000000000, 0.0000000000000000000 ) ) ;
#26 = EDGE_CURVE ( 'NONE', #213, #87, #79, .T. ) ;
#27 = ORIENTED_EDGE ( 'NONE', *, *, #103, .T. ) ;
#28 = CC_DESIGN_APPROVAL ( #201, ( #86 ) ) ;
#29 = VECTOR ( 'NONE', #25, 1000.000000000000000 ) ;
#30 = COORDINATED_UNIVERSAL_TIME_OFFSET ( 1, 0, .AHEAD. ) ;
#31 = APPROVAL_PERSON_ORGANIZATION ( #81, #164, #206 ) ;
#32 = FACE_OUTER_BOUND ( 'NONE', #110, .T. ) ;
#33 = EDGE_CURVE ( 'NONE', #131, #163, #58, .T. ) ;
#34 = LINE ( 'NONE', #172, #29 ) ;
#35 = LOCAL_TIME ( 9, 8, 36.00000000000000000, #84 ) ;
#36 = COORDINATED_UNIVERSAL_TIME_OFFSET ( 1, 0, .AHEAD. ) ;
#37 = DIRECTION ( 'NONE',  ( -0.0000000000000000000, -0.0000000000000000000, -1.000000000000000000 ) ) ;
#38 = DATE_TIME_ROLE ( 'classification_date' ) ;
#39 = PRODUCT_DEFINITION ( 'UNKNOWN', '', #132, #214 ) ;
#40 = APPLICATION_CONTEXT ( 'configuration controlled 3d designs of mechanical parts and assemblies' ) ;
#41 = ORIENTED_EDGE ( 'NONE', *, *, #61, .T. ) ;
#42 = CARTESIAN_POINT ( 'NONE',  ( -139.0000000000000600, -12.24999999999997700, 11.00000000000000000 ) ) ;
#43 = DIRECTION ( 'NONE',  ( 1.000000000000000000, 0.0000000000000000000, 0.0000000000000000000 ) ) ;
#44 = PRODUCT ( '08054500d', '08054500d', '', ( #59 ) ) ;
#45 = CARTESIAN_POINT ( 'NONE',  ( 138.9999999999999700, 12.25000000000002500, 11.00000000000000000 ) ) ;
#46 = DIRECTION ( 'NONE',  ( 0.0000000000000000000, -0.0000000000000000000, 1.000000000000000000 ) ) ;
#47 = CARTESIAN_POINT ( 'NONE',  ( -139.0000000000000300, 12.25000000000002500, 11.00000000000000000 ) ) ;
#48 = LINE ( 'NONE', #114, #90 ) ;
#49 = APPROVAL_DATE_TIME ( #91, #164 ) ;
#50 = LOCAL_TIME ( 9, 8, 36.00000000000000000, #92 ) ;
#51 = VECTOR ( 'NONE', #176, 1000.000000000000000 ) ;
#52 = EDGE_CURVE ( 'NONE', #133, #13, #144, .T. ) ;
#53 = ORGANIZATION ( 'UNSPECIFIED', 'UNSPECIFIED', '' ) ;
#54 = ORIENTED_EDGE ( 'NONE', *, *, #160, .T. ) ;
#55 = VECTOR ( 'NONE', #142, 1000.000000000000000 ) ;
#56 = SECURITY_CLASSIFICATION_LEVEL ( 'unclassified' ) ;
#57 = DIRECTION ( 'NONE',  ( 1.132880637372608700E-015, 1.000000000000000000, 0.0000000000000000000 ) ) ;
#58 = LINE ( 'NONE', #15, #10 ) ;
#59 = MECHANICAL_CONTEXT ( 'NONE', #73, 'mechanical' ) ;
#60 = CARTESIAN_POINT ( 'NONE',  ( -139.0000000000000300, 12.25000000000002500, 11.00000000000000000 ) ) ;
#61 = EDGE_CURVE ( 'NONE', #131, #202, #221, .T. ) ;
#62 = ORIENTED_EDGE ( 'NONE', *, *, #216, .F. ) ;
#63 = CC_DESIGN_PERSON_AND_ORGANIZATION_ASSIGNMENT ( #85, #116, ( #39 ) ) ;
#64 = LINE ( 'NONE', #208, #112 ) ;
#65 = ORIENTED_EDGE ( 'NONE', *, *, #150, .T. ) ;
#66 = EDGE_LOOP ( 'NONE', ( #27, #95, #226, #65 ) ) ;
#67 = ORIENTED_EDGE ( 'NONE', *, *, #52, .F. ) ;
#68 = APPROVAL_DATE_TIME ( #129, #201 ) ;
#69 = CARTESIAN_POINT ( 'NONE',  ( -139.0000000000000300, 12.25000000000002500, 11.00000000000000000 ) ) ;
#70 = PERSON_AND_ORGANIZATION_ROLE ( 'creator' ) ;
#71 = CC_DESIGN_PERSON_AND_ORGANIZATION_ASSIGNMENT ( #234, #70, ( #132 ) ) ;
#72 = CARTESIAN_POINT ( 'NONE',  ( -139.0000000000000600, -12.24999999999997700, 11.00000000000000000 ) ) ;
#73 = APPLICATION_CONTEXT ( 'configuration controlled 3d designs of mechanical parts and assemblies' ) ;
#74 = ORIENTED_EDGE ( 'NONE', *, *, #12, .T. ) ;
#75 = CARTESIAN_POINT ( 'NONE',  ( 0.0000000000000000000, 0.0000000000000000000, 0.0000000000000000000 ) ) ;
#76 = CC_DESIGN_PERSON_AND_ORGANIZATION_ASSIGNMENT ( #188, #192, ( #132 ) ) ;
#77 = PRODUCT_DEFINITION_SHAPE ( 'NONE', 'NONE',  #39 ) ;
#78 = CARTESIAN_POINT ( 'NONE',  ( -139.0000000000000300, 12.25000000000002500, 11.00000000000000000 ) ) ;
#79 = LINE ( 'NONE', #207, #229 ) ;
#80 = APPROVAL_PERSON_ORGANIZATION ( #134, #201, #17 ) ;
#81 = PERSON_AND_ORGANIZATION ( #8, #53 ) ;
#82 = CLOSED_SHELL ( 'NONE', ( #99, #6, #174, #196, #24, #122 ) ) ;
#83 = FACE_OUTER_BOUND ( 'NONE', #139, .T. ) ;
#84 = COORDINATED_UNIVERSAL_TIME_OFFSET ( 1, 0, .AHEAD. ) ;
#85 = PERSON_AND_ORGANIZATION ( #8, #53 ) ;
#86 = SECURITY_CLASSIFICATION ( '', '', #56 ) ;
#87 = VERTEX_POINT ( 'NONE', #93 ) ;
#88 = CC_DESIGN_APPROVAL ( #164, ( #132 ) ) ;
#89 = EDGE_CURVE ( 'NONE', #163, #153, #48, .T. ) ;
#90 = VECTOR ( 'NONE', #18, 1000.000000000000000 ) ;
#91 = DATE_AND_TIME ( #106, #180 ) ;
#92 = COORDINATED_UNIVERSAL_TIME_OFFSET ( 1, 0, .AHEAD. ) ;
#93 = CARTESIAN_POINT ( 'NONE',  ( -139.0000000000000300, 12.25000000000002500, 0.0000000000000000000 ) ) ;
#94 = APPROVAL_STATUS ( 'not_yet_approved' ) ;
#95 = ORIENTED_EDGE ( 'NONE', *, *, #26, .F. ) ;
#96 = DIRECTION ( 'NONE',  ( -0.0000000000000000000, -0.0000000000000000000, -1.000000000000000000 ) ) ;
#97 = APPLICATION_PROTOCOL_DEFINITION ( 'international standard', 'config_control_design', 1994, #73 ) ;
#98 = DIRECTION ( 'NONE',  ( 0.0000000000000000000, -0.0000000000000000000, -1.000000000000000000 ) ) ;
#99 = ADVANCED_FACE ( 'NONE', ( #127 ), #224, .F. ) ;
#100 = CARTESIAN_POINT ( 'NONE',  ( -139.0000000000000300, 12.25000000000002500, 0.0000000000000000000 ) ) ;
#101 = CARTESIAN_POINT ( 'NONE',  ( 138.9999999999999700, 12.25000000000002500, 11.00000000000000000 ) ) ;
#102 = VECTOR ( 'NONE', #137, 1000.000000000000000 ) ;
#103 = EDGE_CURVE ( 'NONE', #153, #87, #143, .T. ) ;
#104 = SHAPE_DEFINITION_REPRESENTATION ( #77, #107 ) ;
#105 = CC_DESIGN_APPROVAL ( #158, ( #39 ) ) ;
#106 = CALENDAR_DATE ( 2019, 19, 3 ) ;
#107 = ADVANCED_BREP_SHAPE_REPRESENTATION ( '08054500d', ( #9, #117 ), #108 ) ;
#108 =( GEOMETRIC_REPRESENTATION_CONTEXT ( 3 ) GLOBAL_UNCERTAINTY_ASSIGNED_CONTEXT ( ( #203 ) ) GLOBAL_UNIT_ASSIGNED_CONTEXT ( ( #140, #5, #119 ) ) REPRESENTATION_CONTEXT ( 'NONE', 'WORKASPACE' ) );
#109 = AXIS2_PLACEMENT_3D ( 'NONE', #69, #170, #57 ) ;
#110 = EDGE_LOOP ( 'NONE', ( #232, #183, #62, #148 ) ) ;
#111 = DIRECTION ( 'NONE',  ( -0.0000000000000000000, 0.0000000000000000000, 1.000000000000000000 ) ) ;
#112 = VECTOR ( 'NONE', #43, 1000.000000000000000 ) ;
#113 = PLANE ( 'NONE',  #125 ) ;
#114 = CARTESIAN_POINT ( 'NONE',  ( 138.9999999999999700, 12.25000000000002500, 0.0000000000000000000 ) ) ;
#115 = ORIENTED_EDGE ( 'NONE', *, *, #162, .F. ) ;
#116 = PERSON_AND_ORGANIZATION_ROLE ( 'creator' ) ;
#117 = AXIS2_PLACEMENT_3D ( 'NONE', #75, #21, #194 ) ;
#118 = DIRECTION ( 'NONE',  ( -0.0000000000000000000, -0.0000000000000000000, -1.000000000000000000 ) ) ;
#119 =( NAMED_UNIT ( * ) SI_UNIT ( $, .STERADIAN. ) SOLID_ANGLE_UNIT ( ) );
#120 = CARTESIAN_POINT ( 'NONE',  ( 138.9999999999999700, 12.25000000000002500, 11.00000000000000000 ) ) ;
#121 = CC_DESIGN_DATE_AND_TIME_ASSIGNMENT ( #136, #225, ( #39 ) ) ;
#122 = ADVANCED_FACE ( 'NONE', ( #233 ), #20, .F. ) ;
#123 = DIRECTION ( 'NONE',  ( 0.0000000000000000000, 1.000000000000000000, 0.0000000000000000000 ) ) ;
#124 = CARTESIAN_POINT ( 'NONE',  ( 138.9999999999999400, -12.24999999999997700, 0.0000000000000000000 ) ) ;
#125 = AXIS2_PLACEMENT_3D ( 'NONE', #175, #2, #135 ) ;
#126 = DIRECTION ( 'NONE',  ( 1.000000000000000000, 0.0000000000000000000, 0.0000000000000000000 ) ) ;
#127 = FACE_OUTER_BOUND ( 'NONE', #168, .T. ) ;
#128 = ORIENTED_EDGE ( 'NONE', *, *, #150, .F. ) ;
#129 = DATE_AND_TIME ( #179, #222 ) ;
#130 = CC_DESIGN_PERSON_AND_ORGANIZATION_ASSIGNMENT ( #1, #171, ( #44 ) ) ;
#131 = VERTEX_POINT ( 'NONE', #177 ) ;
#132 = PRODUCT_DEFINITION_FORMATION_WITH_SPECIFIED_SOURCE ( 'ANY', '', #44, .NOT_KNOWN. ) ;
#133 = VERTEX_POINT ( 'NONE', #210 ) ;
#134 = PERSON_AND_ORGANIZATION ( #8, #53 ) ;
#135 = DIRECTION ( 'NONE',  ( 1.000000000000000000, 0.0000000000000000000, 0.0000000000000000000 ) ) ;
#136 = DATE_AND_TIME ( #185, #231 ) ;
#137 = DIRECTION ( 'NONE',  ( -1.000000000000000000, -0.0000000000000000000, -0.0000000000000000000 ) ) ;
#138 = PLANE ( 'NONE',  #199 ) ;
#139 = EDGE_LOOP ( 'NONE', ( #54, #3, #41, #161 ) ) ;
#140 =( LENGTH_UNIT ( ) NAMED_UNIT ( * ) SI_UNIT ( .MILLI., .METRE. ) );
#141 = PLANE ( 'NONE',  #204 ) ;
#142 = DIRECTION ( 'NONE',  ( -1.000000000000000000, -0.0000000000000000000, -0.0000000000000000000 ) ) ;
#143 = LINE ( 'NONE', #100, #102 ) ;
#144 = LINE ( 'NONE', #72, #156 ) ;
#145 = PERSON_AND_ORGANIZATION ( #8, #53 ) ;
#146 = APPROVAL_DATE_TIME ( #190, #158 ) ;
#147 = CC_DESIGN_PERSON_AND_ORGANIZATION_ASSIGNMENT ( #145, #169, ( #86 ) ) ;
#148 = ORIENTED_EDGE ( 'NONE', *, *, #52, .T. ) ;
#149 = FACE_OUTER_BOUND ( 'NONE', #193, .T. ) ;
#150 = EDGE_CURVE ( 'NONE', #202, #153, #189, .T. ) ;
#151 = LINE ( 'NONE', #47, #55 ) ;
#152 = APPROVAL_PERSON_ORGANIZATION ( #200, #158, #4 ) ;
#153 = VERTEX_POINT ( 'NONE', #198 ) ;
#154 = EDGE_CURVE ( 'NONE', #202, #213, #151, .T. ) ;
#155 = APPROVAL_STATUS ( 'not_yet_approved' ) ;
#156 = VECTOR ( 'NONE', #96, 1000.000000000000000 ) ;
#157 = APPLICATION_PROTOCOL_DEFINITION ( 'international standard', 'config_control_design', 1994, #40 ) ;
#158 = APPROVAL ( #19, 'UNSPECIFIED' ) ;
#159 = DIRECTION ( 'NONE',  ( -1.000000000000000000, 1.132880637372608700E-015, 0.0000000000000000000 ) ) ;
#160 = EDGE_CURVE ( 'NONE', #213, #133, #237, .T. ) ;
#161 = ORIENTED_EDGE ( 'NONE', *, *, #154, .T. ) ;
#162 = EDGE_CURVE ( 'NONE', #13, #163, #215, .T. ) ;
#163 = VERTEX_POINT ( 'NONE', #124 ) ;
#164 = APPROVAL ( #94, 'UNSPECIFIED' ) ;
#165 = VECTOR ( 'NONE', #209, 1000.000000000000000 ) ;
#166 = CC_DESIGN_SECURITY_CLASSIFICATION ( #86, ( #132 ) ) ;
#167 = DIRECTION ( 'NONE',  ( 1.132880637372608700E-015, 1.000000000000000000, -0.0000000000000000000 ) ) ;
#168 = EDGE_LOOP ( 'NONE', ( #74, #67, #178, #22 ) ) ;
#169 = PERSON_AND_ORGANIZATION_ROLE ( 'classification_officer' ) ;
#170 = DIRECTION ( 'NONE',  ( 1.000000000000000000, -1.132880637372608700E-015, 0.0000000000000000000 ) ) ;
#171 = PERSON_AND_ORGANIZATION_ROLE ( 'design_owner' ) ;
#172 = CARTESIAN_POINT ( 'NONE',  ( -139.0000000000000300, 12.25000000000002500, 0.0000000000000000000 ) ) ;
#173 = PLANE ( 'NONE',  #182 ) ;
#174 = ADVANCED_FACE ( 'NONE', ( #149 ), #173, .F. ) ;
#175 = CARTESIAN_POINT ( 'NONE',  ( 0.0000000000000000000, 0.0000000000000000000, 11.00000000000000000 ) ) ;
#176 = DIRECTION ( 'NONE',  ( -0.0000000000000000000, -0.0000000000000000000, -1.000000000000000000 ) ) ;
#177 = CARTESIAN_POINT ( 'NONE',  ( 138.9999999999999400, -12.24999999999997700, 11.00000000000000000 ) ) ;
#178 = ORIENTED_EDGE ( 'NONE', *, *, #160, .F. ) ;
#179 = CALENDAR_DATE ( 2019, 19, 3 ) ;
#180 = LOCAL_TIME ( 9, 8, 36.00000000000000000, #223 ) ;
#181 = ORIENTED_EDGE ( 'NONE', *, *, #33, .T. ) ;
#182 = AXIS2_PLACEMENT_3D ( 'NONE', #45, #159, #23 ) ;
#183 = ORIENTED_EDGE ( 'NONE', *, *, #33, .F. ) ;
#184 = DATE_AND_TIME ( #230, #35 ) ;
#185 = CALENDAR_DATE ( 2019, 19, 3 ) ;
#186 = ORIENTED_EDGE ( 'NONE', *, *, #103, .F. ) ;
#187 = VECTOR ( 'NONE', #167, 1000.000000000000000 ) ;
#188 = PERSON_AND_ORGANIZATION ( #8, #53 ) ;
#189 = LINE ( 'NONE', #101, #51 ) ;
#190 = DATE_AND_TIME ( #235, #50 ) ;
#191 = CARTESIAN_POINT ( 'NONE',  ( 138.9999999999999700, 12.25000000000002500, 11.00000000000000000 ) ) ;
#192 = PERSON_AND_ORGANIZATION_ROLE ( 'design_supplier' ) ;
#193 = EDGE_LOOP ( 'NONE', ( #205, #128, #236, #181 ) ) ;
#194 = DIRECTION ( 'NONE',  ( 1.000000000000000000, 0.0000000000000000000, 0.0000000000000000000 ) ) ;
#195 = CARTESIAN_POINT ( 'NONE',  ( -139.0000000000000300, 12.25000000000002500, 11.00000000000000000 ) ) ;
#196 = ADVANCED_FACE ( 'NONE', ( #211 ), #141, .F. ) ;
#197 = DIRECTION ( 'NONE',  ( 0.0000000000000000000, -1.000000000000000000, 0.0000000000000000000 ) ) ;
#198 = CARTESIAN_POINT ( 'NONE',  ( 138.9999999999999700, 12.25000000000002500, 0.0000000000000000000 ) ) ;
#199 = AXIS2_PLACEMENT_3D ( 'NONE', #42, #123, #46 ) ;
#200 = PERSON_AND_ORGANIZATION ( #8, #53 ) ;
#201 = APPROVAL ( #155, 'UNSPECIFIED' ) ;
#202 = VERTEX_POINT ( 'NONE', #120 ) ;
#203 = UNCERTAINTY_MEASURE_WITH_UNIT (LENGTH_MEASURE( 1.000000000000000100E-005 ), #140, 'distance_accuracy_value', 'NONE');
#204 = AXIS2_PLACEMENT_3D ( 'NONE', #60, #197, #98 ) ;
#205 = ORIENTED_EDGE ( 'NONE', *, *, #89, .T. ) ;
#206 = APPROVAL_ROLE ( '' ) ;
#207 = CARTESIAN_POINT ( 'NONE',  ( -139.0000000000000300, 12.25000000000002500, 11.00000000000000000 ) ) ;
#208 = CARTESIAN_POINT ( 'NONE',  ( -139.0000000000000600, -12.24999999999997700, 11.00000000000000000 ) ) ;
#209 = DIRECTION ( 'NONE',  ( 1.000000000000000000, 0.0000000000000000000, 0.0000000000000000000 ) ) ;
#210 = CARTESIAN_POINT ( 'NONE',  ( -139.0000000000000600, -12.24999999999997700, 11.00000000000000000 ) ) ;
#211 = FACE_OUTER_BOUND ( 'NONE', #66, .T. ) ;
#212 = CC_DESIGN_DATE_AND_TIME_ASSIGNMENT ( #184, #38, ( #86 ) ) ;
#213 = VERTEX_POINT ( 'NONE', #195 ) ;
#214 = DESIGN_CONTEXT ( 'detailed design', #40, 'design' ) ;
#215 = LINE ( 'NONE', #7, #165 ) ;
#216 = EDGE_CURVE ( 'NONE', #133, #131, #64, .T. ) ;
#217 = ORIENTED_EDGE ( 'NONE', *, *, #89, .F. ) ;
#218 = ORIENTED_EDGE ( 'NONE', *, *, #12, .F. ) ;
#219 = PRODUCT_RELATED_PRODUCT_CATEGORY ( 'detail', '', ( #44 ) ) ;
#220 = CARTESIAN_POINT ( 'NONE',  ( -139.0000000000000600, -12.24999999999997700, 0.0000000000000000000 ) ) ;
#221 = LINE ( 'NONE', #191, #187 ) ;
#222 = LOCAL_TIME ( 9, 8, 36.00000000000000000, #30 ) ;
#223 = COORDINATED_UNIVERSAL_TIME_OFFSET ( 1, 0, .AHEAD. ) ;
#224 = PLANE ( 'NONE',  #109 ) ;
#225 = DATE_TIME_ROLE ( 'creation_date' ) ;
#226 = ORIENTED_EDGE ( 'NONE', *, *, #154, .F. ) ;
#227 = DIRECTION ( 'NONE',  ( -1.132880637372608700E-015, -1.000000000000000000, 0.0000000000000000000 ) ) ;
#228 = AXIS2_PLACEMENT_3D ( 'NONE', #14, #111, #126 ) ;
#229 = VECTOR ( 'NONE', #118, 1000.000000000000000 ) ;
#230 = CALENDAR_DATE ( 2019, 19, 3 ) ;
#231 = LOCAL_TIME ( 9, 8, 36.00000000000000000, #36 ) ;
#232 = ORIENTED_EDGE ( 'NONE', *, *, #162, .T. ) ;
#233 = FACE_OUTER_BOUND ( 'NONE', #16, .T. ) ;
#234 = PERSON_AND_ORGANIZATION ( #8, #53 ) ;
#235 = CALENDAR_DATE ( 2019, 19, 3 ) ;
#236 = ORIENTED_EDGE ( 'NONE', *, *, #61, .F. ) ;
#237 = LINE ( 'NONE', #78, #11 ) ;
ENDSEC;
END-ISO-10303-21;
