ISO-10303-21;
HEADER;
FILE_DESCRIPTION (( 'STEP AP203' ),
    '1' );
FILE_NAME ('101925100d.STEP',
    '2018-10-09T09:44:44',
    ( '' ),
    ( '' ),
    'SwSTEP 2.0',
    'SolidWorks 2017',
    '' );
FILE_SCHEMA (( 'CONFIG_CONTROL_DESIGN' ));
ENDSEC;

DATA;
#1 = AXIS2_PLACEMENT_3D ( 'NONE', #151, #70, #152 ) ;
#2 = SECURITY_CLASSIFICATION_LEVEL ( 'unclassified' ) ;
#3 = CYLINDRICAL_SURFACE ( 'NONE', #135, 4.900000000000001200 ) ;
#4 = APPROVAL_STATUS ( 'not_yet_approved' ) ;
#5 = CARTESIAN_POINT ( 'NONE',  ( 0.0000000000000000000, 2.500000000000000000, -5.000000000000000000 ) ) ;
#6 = PLANE ( 'NONE',  #203 ) ;
#7 = EDGE_CURVE ( 'NONE', #213, #19, #190, .T. ) ;
#8 = PERSON_AND_ORGANIZATION ( #120, #158 ) ;
#9 = DATE_AND_TIME ( #179, #202 ) ;
#10 = CARTESIAN_POINT ( 'NONE',  ( 0.0000000000000000000, 2.500000000000000000, 0.0000000000000000000 ) ) ;
#11 = CARTESIAN_POINT ( 'NONE',  ( 0.0000000000000000000, 0.0000000000000000000, 0.0000000000000000000 ) ) ;
#12 = SECURITY_CLASSIFICATION ( '', '', #2 ) ;
#13 = DIRECTION ( 'NONE',  ( 0.0000000000000000000, 1.000000000000000000, 0.0000000000000000000 ) ) ;
#14 = LOCAL_TIME ( 11, 44, 44.00000000000000000, #249 ) ;
#15 = ORIENTED_EDGE ( 'NONE', *, *, #209, .T. ) ;
#16 = APPROVAL ( #101, 'UNSPECIFIED' ) ;
#17 = CALENDAR_DATE ( 2018, 9, 10 ) ;
#18 = COORDINATED_UNIVERSAL_TIME_OFFSET ( 1, 0, .AHEAD. ) ;
#19 = VERTEX_POINT ( 'NONE', #112 ) ;
#20 = AXIS2_PLACEMENT_3D ( 'NONE', #217, #200, #166 ) ;
#21 = VERTEX_POINT ( 'NONE', #72 ) ;
#22 = APPROVAL ( #4, 'UNSPECIFIED' ) ;
#23 = ORIENTED_EDGE ( 'NONE', *, *, #255, .F. ) ;
#24 = ORIENTED_EDGE ( 'NONE', *, *, #219, .T. ) ;
#25 = PERSON_AND_ORGANIZATION ( #120, #158 ) ;
#26 = PERSON_AND_ORGANIZATION_ROLE ( 'creator' ) ;
#27 = APPLICATION_CONTEXT ( 'configuration controlled 3d designs of mechanical parts and assemblies' ) ;
#28 = CC_DESIGN_PERSON_AND_ORGANIZATION_ASSIGNMENT ( #136, #26, ( #193 ) ) ;
#29 = ORIENTED_EDGE ( 'NONE', *, *, #161, .F. ) ;
#30 = CIRCLE ( 'NONE', #20, 4.900000000000001200 ) ;
#31 = ORIENTED_EDGE ( 'NONE', *, *, #167, .F. ) ;
#32 = CC_DESIGN_DATE_AND_TIME_ASSIGNMENT ( #172, #233, ( #12 ) ) ;
#33 = DIRECTION ( 'NONE',  ( 0.0000000000000000000, 0.0000000000000000000, 1.000000000000000000 ) ) ;
#34 = EDGE_LOOP ( 'NONE', ( #122, #114, #24, #39 ) ) ;
#35 = DIRECTION ( 'NONE',  ( 0.0000000000000000000, -0.0000000000000000000, 1.000000000000000000 ) ) ;
#36 = CC_DESIGN_DATE_AND_TIME_ASSIGNMENT ( #169, #63, ( #251 ) ) ;
#37 = LINE ( 'NONE', #125, #42 ) ;
#38 = CIRCLE ( 'NONE', #43, 5.000000000000000000 ) ;
#39 = ORIENTED_EDGE ( 'NONE', *, *, #245, .T. ) ;
#40 = CC_DESIGN_APPROVAL ( #110, ( #193 ) ) ;
#41 = APPROVAL_PERSON_ORGANIZATION ( #246, #110, #46 ) ;
#42 = VECTOR ( 'NONE', #77, 1000.000000000000000 ) ;
#43 = AXIS2_PLACEMENT_3D ( 'NONE', #238, #13, #175 ) ;
#44 = DIRECTION ( 'NONE',  ( -0.0000000000000000000, -1.000000000000000000, -0.0000000000000000000 ) ) ;
#45 = EDGE_CURVE ( 'NONE', #128, #183, #141, .T. ) ;
#46 = APPROVAL_ROLE ( '' ) ;
#47 = APPROVAL_DATE_TIME ( #109, #110 ) ;
#48 = CIRCLE ( 'NONE', #65, 5.000000000000000000 ) ;
#49 = MECHANICAL_CONTEXT ( 'NONE', #142, 'mechanical' ) ;
#50 = LOCAL_TIME ( 11, 44, 44.00000000000000000, #129 ) ;
#51 = VECTOR ( 'NONE', #126, 1000.000000000000000 ) ;
#52 = VERTEX_POINT ( 'NONE', #54 ) ;
#53 = CARTESIAN_POINT ( 'NONE',  ( 0.0000000000000000000, 2.500000000000000000, 0.0000000000000000000 ) ) ;
#54 = CARTESIAN_POINT ( 'NONE',  ( 0.0000000000000000000, -1.500000000000000000, 4.900000000000001200 ) ) ;
#55 = COORDINATED_UNIVERSAL_TIME_OFFSET ( 1, 0, .AHEAD. ) ;
#56 = CYLINDRICAL_SURFACE ( 'NONE', #235, 5.000000000000000000 ) ;
#57 = PLANE ( 'NONE',  #146 ) ;
#58 = AXIS2_PLACEMENT_3D ( 'NONE', #117, #108, #88 ) ;
#59 = VERTEX_POINT ( 'NONE', #250 ) ;
#60 = MANIFOLD_SOLID_BREP ( 'Aufsatz-Linear austragen2', #188 ) ;
#61 =( GEOMETRIC_REPRESENTATION_CONTEXT ( 3 ) GLOBAL_UNCERTAINTY_ASSIGNED_CONTEXT ( ( #116 ) ) GLOBAL_UNIT_ASSIGNED_CONTEXT ( ( #237, #106, #218 ) ) REPRESENTATION_CONTEXT ( 'NONE', 'WORKASPACE' ) );
#62 = FACE_OUTER_BOUND ( 'NONE', #177, .T. ) ;
#63 = DATE_TIME_ROLE ( 'creation_date' ) ;
#64 = DIRECTION ( 'NONE',  ( 0.0000000000000000000, 0.0000000000000000000, 1.000000000000000000 ) ) ;
#65 = AXIS2_PLACEMENT_3D ( 'NONE', #132, #243, #222 ) ;
#66 = CALENDAR_DATE ( 2018, 9, 10 ) ;
#67 = CARTESIAN_POINT ( 'NONE',  ( 0.0000000000000000000, 2.500000000000000000, 0.0000000000000000000 ) ) ;
#68 = EDGE_LOOP ( 'NONE', ( #29, #83 ) ) ;
#69 = APPROVAL_PERSON_ORGANIZATION ( #73, #22, #234 ) ;
#70 = DIRECTION ( 'NONE',  ( -0.0000000000000000000, 1.000000000000000000, -0.0000000000000000000 ) ) ;
#71 = DIRECTION ( 'NONE',  ( 0.0000000000000000000, -1.000000000000000000, 0.0000000000000000000 ) ) ;
#72 = CARTESIAN_POINT ( 'NONE',  ( 0.0000000000000000000, 0.0000000000000000000, -5.000000000000000000 ) ) ;
#73 = PERSON_AND_ORGANIZATION ( #120, #158 ) ;
#74 = LOCAL_TIME ( 11, 44, 44.00000000000000000, #18 ) ;
#75 = ORIENTED_EDGE ( 'NONE', *, *, #167, .T. ) ;
#76 = ADVANCED_FACE ( 'NONE', ( #92 ), #154, .T. ) ;
#77 = DIRECTION ( 'NONE',  ( -0.0000000000000000000, 1.000000000000000000, -0.0000000000000000000 ) ) ;
#78 = FACE_OUTER_BOUND ( 'NONE', #118, .T. ) ;
#79 = FACE_BOUND ( 'NONE', #178, .T. ) ;
#80 = CC_DESIGN_PERSON_AND_ORGANIZATION_ASSIGNMENT ( #157, #143, ( #193 ) ) ;
#81 = PERSON_AND_ORGANIZATION_ROLE ( 'creator' ) ;
#82 = CARTESIAN_POINT ( 'NONE',  ( 6.000769315822032700E-016, -1.500000000000000000, -4.900000000000001200 ) ) ;
#83 = ORIENTED_EDGE ( 'NONE', *, *, #196, .F. ) ;
#84 = CC_DESIGN_APPROVAL ( #22, ( #251 ) ) ;
#85 = PERSON_AND_ORGANIZATION ( #120, #158 ) ;
#86 = ORIENTED_EDGE ( 'NONE', *, *, #209, .F. ) ;
#87 = FACE_OUTER_BOUND ( 'NONE', #34, .T. ) ;
#88 = DIRECTION ( 'NONE',  ( 0.0000000000000000000, 0.0000000000000000000, -1.000000000000000000 ) ) ;
#89 = CARTESIAN_POINT ( 'NONE',  ( 0.0000000000000000000, 0.0000000000000000000, 4.900000000000001200 ) ) ;
#90 = DIRECTION ( 'NONE',  ( 0.0000000000000000000, 1.000000000000000000, 0.0000000000000000000 ) ) ;
#91 = CARTESIAN_POINT ( 'NONE',  ( 6.123233995736766300E-016, 2.500000000000000000, 5.000000000000000000 ) ) ;
#92 = FACE_OUTER_BOUND ( 'NONE', #229, .T. ) ;
#93 = DIRECTION ( 'NONE',  ( -0.0000000000000000000, -1.000000000000000000, -0.0000000000000000000 ) ) ;
#94 = CARTESIAN_POINT ( 'NONE',  ( 0.0000000000000000000, 2.500000000000000000, 0.0000000000000000000 ) ) ;
#95 = VERTEX_POINT ( 'NONE', #133 ) ;
#96 = CC_DESIGN_PERSON_AND_ORGANIZATION_ASSIGNMENT ( #85, #123, ( #12 ) ) ;
#97 = FACE_OUTER_BOUND ( 'NONE', #68, .T. ) ;
#98 = ADVANCED_FACE ( 'NONE', ( #62 ), #3, .T. ) ;
#99 = DIRECTION ( 'NONE',  ( -0.0000000000000000000, 1.000000000000000000, -0.0000000000000000000 ) ) ;
#100 = PRODUCT_RELATED_PRODUCT_CATEGORY ( 'detail', '', ( #140 ) ) ;
#101 = APPROVAL_STATUS ( 'not_yet_approved' ) ;
#102 = CARTESIAN_POINT ( 'NONE',  ( 0.0000000000000000000, 0.0000000000000000000, 0.0000000000000000000 ) ) ;
#103 = ORIENTED_EDGE ( 'NONE', *, *, #227, .T. ) ;
#104 = CARTESIAN_POINT ( 'NONE',  ( 0.0000000000000000000, -1.500000000000000000, 0.0000000000000000000 ) ) ;
#105 = COORDINATED_UNIVERSAL_TIME_OFFSET ( 1, 0, .AHEAD. ) ;
#106 =( NAMED_UNIT ( * ) PLANE_ANGLE_UNIT ( ) SI_UNIT ( $, .RADIAN. ) );
#107 = AXIS2_PLACEMENT_3D ( 'NONE', #11, #90, #206 ) ;
#108 = DIRECTION ( 'NONE',  ( 0.0000000000000000000, -1.000000000000000000, 0.0000000000000000000 ) ) ;
#109 = DATE_AND_TIME ( #17, #74 ) ;
#110 = APPROVAL ( #184, 'UNSPECIFIED' ) ;
#111 = CARTESIAN_POINT ( 'NONE',  ( 6.000769315822032700E-016, 0.0000000000000000000, -4.900000000000001200 ) ) ;
#112 = CARTESIAN_POINT ( 'NONE',  ( 6.123233995736766300E-016, 2.500000000000000000, 5.000000000000000000 ) ) ;
#113 = DATE_AND_TIME ( #66, #239 ) ;
#114 = ORIENTED_EDGE ( 'NONE', *, *, #230, .F. ) ;
#115 = AXIS2_PLACEMENT_3D ( 'NONE', #208, #71, #191 ) ;
#116 = UNCERTAINTY_MEASURE_WITH_UNIT (LENGTH_MEASURE( 1.000000000000000100E-005 ), #237, 'distance_accuracy_value', 'NONE');
#117 = CARTESIAN_POINT ( 'NONE',  ( 0.0000000000000000000, -1.500000000000000000, 0.0000000000000000000 ) ) ;
#118 = EDGE_LOOP ( 'NONE', ( #226, #75 ) ) ;
#119 = CC_DESIGN_PERSON_AND_ORGANIZATION_ASSIGNMENT ( #25, #168, ( #140 ) ) ;
#120 = PERSON ( 'UNSPECIFIED', 'UNSPECIFIED', 'UNSPECIFIED', ('UNSPECIFIED'), ('UNSPECIFIED'), ('UNSPECIFIED') ) ;
#121 = APPROVAL_DATE_TIME ( #9, #22 ) ;
#122 = ORIENTED_EDGE ( 'NONE', *, *, #227, .F. ) ;
#123 = PERSON_AND_ORGANIZATION_ROLE ( 'classification_officer' ) ;
#124 = CC_DESIGN_APPROVAL ( #16, ( #12 ) ) ;
#125 = CARTESIAN_POINT ( 'NONE',  ( 0.0000000000000000000, -1.500000000000000000, 4.900000000000001200 ) ) ;
#126 = DIRECTION ( 'NONE',  ( -0.0000000000000000000, -1.000000000000000000, -0.0000000000000000000 ) ) ;
#127 = EDGE_CURVE ( 'NONE', #19, #95, #201, .T. ) ;
#128 = VERTEX_POINT ( 'NONE', #111 ) ;
#129 = COORDINATED_UNIVERSAL_TIME_OFFSET ( 1, 0, .AHEAD. ) ;
#130 = ORIENTED_EDGE ( 'NONE', *, *, #255, .T. ) ;
#131 = DIRECTION ( 'NONE',  ( 0.0000000000000000000, 1.000000000000000000, 0.0000000000000000000 ) ) ;
#132 = CARTESIAN_POINT ( 'NONE',  ( 0.0000000000000000000, 0.0000000000000000000, 0.0000000000000000000 ) ) ;
#133 = CARTESIAN_POINT ( 'NONE',  ( 6.123233995736766300E-016, 0.0000000000000000000, 5.000000000000000000 ) ) ;
#134 = DIRECTION ( 'NONE',  ( 0.0000000000000000000, 0.0000000000000000000, 1.000000000000000000 ) ) ;
#135 = AXIS2_PLACEMENT_3D ( 'NONE', #155, #244, #33 ) ;
#136 = PERSON_AND_ORGANIZATION ( #120, #158 ) ;
#137 = CIRCLE ( 'NONE', #58, 4.900000000000001200 ) ;
#138 = CC_DESIGN_SECURITY_CLASSIFICATION ( #12, ( #193 ) ) ;
#139 = ORIENTED_EDGE ( 'NONE', *, *, #7, .F. ) ;
#140 = PRODUCT ( '101925100d', '101925100d', '', ( #49 ) ) ;
#141 = CIRCLE ( 'NONE', #115, 4.900000000000001200 ) ;
#142 = APPLICATION_CONTEXT ( 'configuration controlled 3d designs of mechanical parts and assemblies' ) ;
#143 = PERSON_AND_ORGANIZATION_ROLE ( 'design_supplier' ) ;
#144 = APPLICATION_PROTOCOL_DEFINITION ( 'international standard', 'config_control_design', 1994, #27 ) ;
#145 = ORIENTED_EDGE ( 'NONE', *, *, #161, .T. ) ;
#146 = AXIS2_PLACEMENT_3D ( 'NONE', #104, #205, #187 ) ;
#147 = PRODUCT_DEFINITION_SHAPE ( 'NONE', 'NONE',  #251 ) ;
#148 = APPROVAL_DATE_TIME ( #113, #16 ) ;
#149 = FACE_OUTER_BOUND ( 'NONE', #220, .T. ) ;
#150 = CARTESIAN_POINT ( 'NONE',  ( 0.0000000000000000000, 0.0000000000000000000, 0.0000000000000000000 ) ) ;
#151 = CARTESIAN_POINT ( 'NONE',  ( 0.0000000000000000000, -1.500000000000000000, 0.0000000000000000000 ) ) ;
#152 = DIRECTION ( 'NONE',  ( 0.0000000000000000000, 0.0000000000000000000, 1.000000000000000000 ) ) ;
#153 = AXIS2_PLACEMENT_3D ( 'NONE', #53, #93, #174 ) ;
#154 = CYLINDRICAL_SURFACE ( 'NONE', #153, 5.000000000000000000 ) ;
#155 = CARTESIAN_POINT ( 'NONE',  ( 0.0000000000000000000, -1.500000000000000000, 0.0000000000000000000 ) ) ;
#156 = DIRECTION ( 'NONE',  ( 0.0000000000000000000, 1.000000000000000000, 0.0000000000000000000 ) ) ;
#157 = PERSON_AND_ORGANIZATION ( #120, #158 ) ;
#158 = ORGANIZATION ( 'UNSPECIFIED', 'UNSPECIFIED', '' ) ;
#159 = LINE ( 'NONE', #82, #182 ) ;
#160 = ORIENTED_EDGE ( 'NONE', *, *, #230, .T. ) ;
#161 = EDGE_CURVE ( 'NONE', #21, #95, #48, .T. ) ;
#162 = ADVANCED_FACE ( 'NONE', ( #79, #97 ), #207, .F. ) ;
#163 = APPLICATION_PROTOCOL_DEFINITION ( 'international standard', 'config_control_design', 1994, #142 ) ;
#164 = CARTESIAN_POINT ( 'NONE',  ( 0.0000000000000000000, 2.500000000000000000, 0.0000000000000000000 ) ) ;
#165 = ORIENTED_EDGE ( 'NONE', *, *, #219, .F. ) ;
#166 = DIRECTION ( 'NONE',  ( 0.0000000000000000000, 0.0000000000000000000, -1.000000000000000000 ) ) ;
#167 = EDGE_CURVE ( 'NONE', #19, #213, #211, .T. ) ;
#168 = PERSON_AND_ORGANIZATION_ROLE ( 'design_owner' ) ;
#169 = DATE_AND_TIME ( #253, #14 ) ;
#170 = CALENDAR_DATE ( 2018, 9, 10 ) ;
#171 = CC_DESIGN_PERSON_AND_ORGANIZATION_ASSIGNMENT ( #8, #81, ( #251 ) ) ;
#172 = DATE_AND_TIME ( #170, #50 ) ;
#173 = ORIENTED_EDGE ( 'NONE', *, *, #127, .F. ) ;
#174 = DIRECTION ( 'NONE',  ( 0.0000000000000000000, 0.0000000000000000000, -1.000000000000000000 ) ) ;
#175 = DIRECTION ( 'NONE',  ( 0.0000000000000000000, 0.0000000000000000000, 1.000000000000000000 ) ) ;
#176 = AXIS2_PLACEMENT_3D ( 'NONE', #102, #214, #186 ) ;
#177 = EDGE_LOOP ( 'NONE', ( #86, #103, #215, #165 ) ) ;
#178 = EDGE_LOOP ( 'NONE', ( #240, #236 ) ) ;
#179 = CALENDAR_DATE ( 2018, 9, 10 ) ;
#180 = ADVANCED_FACE ( 'NONE', ( #87 ), #232, .T. ) ;
#181 = DIRECTION ( 'NONE',  ( 0.0000000000000000000, 0.0000000000000000000, -1.000000000000000000 ) ) ;
#182 = VECTOR ( 'NONE', #99, 1000.000000000000000 ) ;
#183 = VERTEX_POINT ( 'NONE', #89 ) ;
#184 = APPROVAL_STATUS ( 'not_yet_approved' ) ;
#185 = DIRECTION ( 'NONE',  ( 1.000000000000000000, 0.0000000000000000000, 0.0000000000000000000 ) ) ;
#186 = DIRECTION ( 'NONE',  ( 0.0000000000000000000, 0.0000000000000000000, -1.000000000000000000 ) ) ;
#187 = DIRECTION ( 'NONE',  ( 0.0000000000000000000, -0.0000000000000000000, -1.000000000000000000 ) ) ;
#188 = CLOSED_SHELL ( 'NONE', ( #98, #252, #76, #197, #162, #180, #231 ) ) ;
#189 = AXIS2_PLACEMENT_3D ( 'NONE', #150, #64, #185 ) ;
#190 = CIRCLE ( 'NONE', #212, 5.000000000000000000 ) ;
#191 = DIRECTION ( 'NONE',  ( 0.0000000000000000000, 0.0000000000000000000, -1.000000000000000000 ) ) ;
#192 = CARTESIAN_POINT ( 'NONE',  ( 0.0000000000000000000, 2.500000000000000000, -5.000000000000000000 ) ) ;
#193 = PRODUCT_DEFINITION_FORMATION_WITH_SPECIFIED_SOURCE ( 'ANY', '', #140, .NOT_KNOWN. ) ;
#194 = EDGE_LOOP ( 'NONE', ( #160, #15 ) ) ;
#195 = ORIENTED_EDGE ( 'NONE', *, *, #196, .T. ) ;
#196 = EDGE_CURVE ( 'NONE', #95, #21, #38, .T. ) ;
#197 = ADVANCED_FACE ( 'NONE', ( #78 ), #6, .T. ) ;
#198 = APPROVAL_PERSON_ORGANIZATION ( #204, #16, #216 ) ;
#199 = LINE ( 'NONE', #5, #51 ) ;
#200 = DIRECTION ( 'NONE',  ( 0.0000000000000000000, -1.000000000000000000, 0.0000000000000000000 ) ) ;
#201 = LINE ( 'NONE', #91, #228 ) ;
#202 = LOCAL_TIME ( 11, 44, 44.00000000000000000, #105 ) ;
#203 = AXIS2_PLACEMENT_3D ( 'NONE', #67, #225, #35 ) ;
#204 = PERSON_AND_ORGANIZATION ( #120, #158 ) ;
#205 = DIRECTION ( 'NONE',  ( 0.0000000000000000000, -1.000000000000000000, 0.0000000000000000000 ) ) ;
#206 = DIRECTION ( 'NONE',  ( 0.0000000000000000000, -0.0000000000000000000, 1.000000000000000000 ) ) ;
#207 = PLANE ( 'NONE',  #107 ) ;
#208 = CARTESIAN_POINT ( 'NONE',  ( 0.0000000000000000000, 0.0000000000000000000, 0.0000000000000000000 ) ) ;
#209 = EDGE_CURVE ( 'NONE', #59, #52, #30, .T. ) ;
#210 = ORIENTED_EDGE ( 'NONE', *, *, #127, .T. ) ;
#211 = CIRCLE ( 'NONE', #224, 5.000000000000000000 ) ;
#212 = AXIS2_PLACEMENT_3D ( 'NONE', #94, #156, #134 ) ;
#213 = VERTEX_POINT ( 'NONE', #192 ) ;
#214 = DIRECTION ( 'NONE',  ( 0.0000000000000000000, -1.000000000000000000, 0.0000000000000000000 ) ) ;
#215 = ORIENTED_EDGE ( 'NONE', *, *, #45, .T. ) ;
#216 = APPROVAL_ROLE ( '' ) ;
#217 = CARTESIAN_POINT ( 'NONE',  ( 0.0000000000000000000, -1.500000000000000000, 0.0000000000000000000 ) ) ;
#218 =( NAMED_UNIT ( * ) SI_UNIT ( $, .STERADIAN. ) SOLID_ANGLE_UNIT ( ) );
#219 = EDGE_CURVE ( 'NONE', #52, #183, #37, .T. ) ;
#220 = EDGE_LOOP ( 'NONE', ( #31, #210, #195, #23 ) ) ;
#221 = DESIGN_CONTEXT ( 'detailed design', #27, 'design' ) ;
#222 = DIRECTION ( 'NONE',  ( 0.0000000000000000000, 0.0000000000000000000, 1.000000000000000000 ) ) ;
#223 = DIRECTION ( 'NONE',  ( -0.0000000000000000000, -1.000000000000000000, -0.0000000000000000000 ) ) ;
#224 = AXIS2_PLACEMENT_3D ( 'NONE', #10, #131, #242 ) ;
#225 = DIRECTION ( 'NONE',  ( 0.0000000000000000000, 1.000000000000000000, 0.0000000000000000000 ) ) ;
#226 = ORIENTED_EDGE ( 'NONE', *, *, #7, .T. ) ;
#227 = EDGE_CURVE ( 'NONE', #59, #128, #159, .T. ) ;
#228 = VECTOR ( 'NONE', #223, 1000.000000000000000 ) ;
#229 = EDGE_LOOP ( 'NONE', ( #173, #139, #130, #145 ) ) ;
#230 = EDGE_CURVE ( 'NONE', #52, #59, #137, .T. ) ;
#231 = ADVANCED_FACE ( 'NONE', ( #241 ), #57, .T. ) ;
#232 = CYLINDRICAL_SURFACE ( 'NONE', #1, 4.900000000000001200 ) ;
#233 = DATE_TIME_ROLE ( 'classification_date' ) ;
#234 = APPROVAL_ROLE ( '' ) ;
#235 = AXIS2_PLACEMENT_3D ( 'NONE', #164, #44, #181 ) ;
#236 = ORIENTED_EDGE ( 'NONE', *, *, #45, .F. ) ;
#237 =( LENGTH_UNIT ( ) NAMED_UNIT ( * ) SI_UNIT ( .MILLI., .METRE. ) );
#238 = CARTESIAN_POINT ( 'NONE',  ( 0.0000000000000000000, 0.0000000000000000000, 0.0000000000000000000 ) ) ;
#239 = LOCAL_TIME ( 11, 44, 44.00000000000000000, #55 ) ;
#240 = ORIENTED_EDGE ( 'NONE', *, *, #245, .F. ) ;
#241 = FACE_OUTER_BOUND ( 'NONE', #194, .T. ) ;
#242 = DIRECTION ( 'NONE',  ( 0.0000000000000000000, 0.0000000000000000000, 1.000000000000000000 ) ) ;
#243 = DIRECTION ( 'NONE',  ( 0.0000000000000000000, 1.000000000000000000, 0.0000000000000000000 ) ) ;
#244 = DIRECTION ( 'NONE',  ( -0.0000000000000000000, 1.000000000000000000, -0.0000000000000000000 ) ) ;
#245 = EDGE_CURVE ( 'NONE', #183, #128, #247, .T. ) ;
#246 = PERSON_AND_ORGANIZATION ( #120, #158 ) ;
#247 = CIRCLE ( 'NONE', #176, 4.900000000000001200 ) ;
#248 = ADVANCED_BREP_SHAPE_REPRESENTATION ( '101925100d', ( #60, #189 ), #61 ) ;
#249 = COORDINATED_UNIVERSAL_TIME_OFFSET ( 1, 0, .AHEAD. ) ;
#250 = CARTESIAN_POINT ( 'NONE',  ( 6.000769315822032700E-016, -1.500000000000000000, -4.900000000000001200 ) ) ;
#251 = PRODUCT_DEFINITION ( 'UNKNOWN', '', #193, #221 ) ;
#252 = ADVANCED_FACE ( 'NONE', ( #149 ), #56, .T. ) ;
#253 = CALENDAR_DATE ( 2018, 9, 10 ) ;
#254 = SHAPE_DEFINITION_REPRESENTATION ( #147, #248 ) ;
#255 = EDGE_CURVE ( 'NONE', #213, #21, #199, .T. ) ;
ENDSEC;
END-ISO-10303-21;
