ISO-10303-21;
HEADER;
FILE_DESCRIPTION (( 'STEP AP214' ),
    '1' );
FILE_NAME ('10204500d.STEP',
    '2019-06-24T13:17:09',
    ( '' ),
    ( '' ),
    'SwSTEP 2.0',
    'SolidWorks 2017',
    '' );
FILE_SCHEMA (( 'AUTOMOTIVE_DESIGN' ));
ENDSEC;

DATA;
#1 =( NAMED_UNIT ( * ) PLANE_ANGLE_UNIT ( ) SI_UNIT ( $, .RADIAN. ) );
#2 = CIRCLE ( 'NONE', #77, 5.000000000000000000 ) ;
#3 = DIRECTION ( 'NONE',  ( -0.0000000000000000000, 1.000000000000000000, -0.0000000000000000000 ) ) ;
#4 = DIRECTION ( 'NONE',  ( 0.0000000000000000000, 0.0000000000000000000, 1.000000000000000000 ) ) ;
#5 = CARTESIAN_POINT ( 'NONE',  ( 0.0000000000000000000, 5.500000000000000000, 0.0000000000000000000 ) ) ;
#6 = ORIENTED_EDGE ( 'NONE', *, *, #246, .F. ) ;
#7 = APPLICATION_PROTOCOL_DEFINITION ( 'draft international standard', 'automotive_design', 1998, #179 ) ;
#8 = ORIENTED_EDGE ( 'NONE', *, *, #70, .T. ) ;
#9 = EDGE_CURVE ( 'NONE', #66, #47, #54, .T. ) ;
#10 = DIRECTION ( 'NONE',  ( 0.0000000000000000000, -1.000000000000000000, 0.0000000000000000000 ) ) ;
#11 = DIRECTION ( 'NONE',  ( 0.0000000000000000000, 0.0000000000000000000, 1.000000000000000000 ) ) ;
#12 =( GEOMETRIC_REPRESENTATION_CONTEXT ( 3 ) GLOBAL_UNCERTAINTY_ASSIGNED_CONTEXT ( ( #84 ) ) GLOBAL_UNIT_ASSIGNED_CONTEXT ( ( #208, #235, #106 ) ) REPRESENTATION_CONTEXT ( 'NONE', 'WORKASPACE' ) );
#13 = VECTOR ( 'NONE', #120, 1000.000000000000100 ) ;
#14 = VERTEX_POINT ( 'NONE', #69 ) ;
#15 = VERTEX_POINT ( 'NONE', #38 ) ;
#16 = SURFACE_SIDE_STYLE ('',( #81 ) ) ;
#17 = ORIENTED_EDGE ( 'NONE', *, *, #102, .F. ) ;
#18 = ORIENTED_EDGE ( 'NONE', *, *, #70, .F. ) ;
#19 = APPLICATION_PROTOCOL_DEFINITION ( 'draft international standard', 'automotive_design', 1998, #161 ) ;
#20 = DIRECTION ( 'NONE',  ( 0.0000000000000000000, 1.000000000000000000, 0.0000000000000000000 ) ) ;
#21 = DIRECTION ( 'NONE',  ( 0.0000000000000000000, -1.000000000000000000, 0.0000000000000000000 ) ) ;
#22 = FACE_OUTER_BOUND ( 'NONE', #61, .T. ) ;
#23 = CARTESIAN_POINT ( 'NONE',  ( 0.0000000000000000000, -6.000000000000000000, 1.500000000000000200 ) ) ;
#24 = AXIS2_PLACEMENT_3D ( 'NONE', #29, #96, #199 ) ;
#25 = DIRECTION ( 'NONE',  ( -0.0000000000000000000, 1.000000000000000000, -0.0000000000000000000 ) ) ;
#26 = ADVANCED_FACE ( 'NONE', ( #144, #113 ), #259, .F. ) ;
#27 = STYLED_ITEM ( 'NONE', ( #135 ), #62 ) ;
#28 = FILL_AREA_STYLE_COLOUR ( '', #116 ) ;
#29 = CARTESIAN_POINT ( 'NONE',  ( 0.0000000000000000000, 0.0000000000000000000, 0.0000000000000000000 ) ) ;
#30 = CYLINDRICAL_SURFACE ( 'NONE', #262, 5.000000000000000000 ) ;
#31 = CARTESIAN_POINT ( 'NONE',  ( 0.0000000000000000000, 0.0000000000000000000, 0.0000000000000000000 ) ) ;
#32 = ORIENTED_EDGE ( 'NONE', *, *, #178, .T. ) ;
#33 = AXIS2_PLACEMENT_3D ( 'NONE', #31, #20, #138 ) ;
#34 = ORIENTED_EDGE ( 'NONE', *, *, #197, .T. ) ;
#35 = DIRECTION ( 'NONE',  ( 0.0000000000000000000, -1.000000000000000000, 0.0000000000000000000 ) ) ;
#36 = DIRECTION ( 'NONE',  ( 0.0000000000000000000, 1.000000000000000000, 0.0000000000000000000 ) ) ;
#37 = AXIS2_PLACEMENT_3D ( 'NONE', #158, #198, #100 ) ;
#38 = CARTESIAN_POINT ( 'NONE',  ( 6.123233995736766300E-016, 0.0000000000000000000, 5.000000000000000000 ) ) ;
#39 = CIRCLE ( 'NONE', #83, 1.500000000000000200 ) ;
#40 =( NAMED_UNIT ( * ) SI_UNIT ( $, .STERADIAN. ) SOLID_ANGLE_UNIT ( ) );
#41 = ORIENTED_EDGE ( 'NONE', *, *, #60, .T. ) ;
#42 = DIRECTION ( 'NONE',  ( 0.0000000000000000000, 0.0000000000000000000, -1.000000000000000000 ) ) ;
#43 = CIRCLE ( 'NONE', #201, 5.000000000000000000 ) ;
#44 = AXIS2_PLACEMENT_3D ( 'NONE', #122, #204, #205 ) ;
#45 = ORIENTED_EDGE ( 'NONE', *, *, #154, .T. ) ;
#46 = CARTESIAN_POINT ( 'NONE',  ( 0.0000000000000000000, -5.799999999999998000, 1.500000000000000200 ) ) ;
#47 = VERTEX_POINT ( 'NONE', #123 ) ;
#48 = EDGE_LOOP ( 'NONE', ( #94, #175, #229, #6 ) ) ;
#49 = PRODUCT_DEFINITION ( 'UNKNOWN', '', #108, #52 ) ;
#50 = VECTOR ( 'NONE', #115, 1000.000000000000000 ) ;
#51 = ORIENTED_EDGE ( 'NONE', *, *, #102, .T. ) ;
#52 = PRODUCT_DEFINITION_CONTEXT ( 'detailed design', #161, 'design' ) ;
#53 = ADVANCED_FACE ( 'NONE', ( #261 ), #183, .T. ) ;
#54 = LINE ( 'NONE', #189, #200 ) ;
#55 = MECHANICAL_DESIGN_GEOMETRIC_PRESENTATION_REPRESENTATION (  '', ( #133 ), #145 ) ;
#56 = DIRECTION ( 'NONE',  ( -0.0000000000000000000, -1.000000000000000000, -0.0000000000000000000 ) ) ;
#57 = EDGE_LOOP ( 'NONE', ( #168, #18 ) ) ;
#58 = CIRCLE ( 'NONE', #33, 5.000000000000000000 ) ;
#59 = PRODUCT_CONTEXT ( 'NONE', #179, 'mechanical' ) ;
#60 = EDGE_CURVE ( 'NONE', #91, #141, #236, .T. ) ;
#61 = EDGE_LOOP ( 'NONE', ( #216, #73 ) ) ;
#62 = MANIFOLD_SOLID_BREP ( 'Fase1', #93 ) ;
#63 = DIRECTION ( 'NONE',  ( 0.0000000000000000000, 0.0000000000000000000, -1.000000000000000000 ) ) ;
#64 = CYLINDRICAL_SURFACE ( 'NONE', #130, 1.500000000000000200 ) ;
#65 = DIRECTION ( 'NONE',  ( 0.0000000000000000000, -0.0000000000000000000, 1.000000000000000000 ) ) ;
#66 = VERTEX_POINT ( 'NONE', #190 ) ;
#67 = DIRECTION ( 'NONE',  ( -0.0000000000000000000, 1.000000000000000000, -0.0000000000000000000 ) ) ;
#68 = PRODUCT ( '10204500d', '10204500d', '', ( #59 ) ) ;
#69 = CARTESIAN_POINT ( 'NONE',  ( 0.0000000000000000000, -6.000000000000000000, 1.299999999999999200 ) ) ;
#70 = EDGE_CURVE ( 'NONE', #47, #141, #39, .T. ) ;
#71 = FACE_OUTER_BOUND ( 'NONE', #121, .T. ) ;
#72 = VERTEX_POINT ( 'NONE', #162 ) ;
#73 = ORIENTED_EDGE ( 'NONE', *, *, #89, .T. ) ;
#74 = ADVANCED_FACE ( 'NONE', ( #180 ), #64, .T. ) ;
#75 = CIRCLE ( 'NONE', #44, 1.500000000000000200 ) ;
#76 = EDGE_CURVE ( 'NONE', #152, #14, #151, .T. ) ;
#77 = AXIS2_PLACEMENT_3D ( 'NONE', #184, #36, #166 ) ;
#78 = DIRECTION ( 'NONE',  ( 0.0000000000000000000, 0.0000000000000000000, -1.000000000000000000 ) ) ;
#79 = CARTESIAN_POINT ( 'NONE',  ( 1.592040838891558100E-016, -6.000000000000000000, -1.299999999999999200 ) ) ;
#80 = CARTESIAN_POINT ( 'NONE',  ( 0.0000000000000000000, 5.500000000000000000, -5.000000000000000000 ) ) ;
#81 = SURFACE_STYLE_FILL_AREA ( #156 ) ;
#82 = DIRECTION ( 'NONE',  ( 0.0000000000000000000, 1.000000000000000000, 0.0000000000000000000 ) ) ;
#83 = AXIS2_PLACEMENT_3D ( 'NONE', #212, #255, #63 ) ;
#84 = UNCERTAINTY_MEASURE_WITH_UNIT (LENGTH_MEASURE( 1.000000000000000100E-005 ), #208, 'distance_accuracy_value', 'NONE');
#85 = ORIENTED_EDGE ( 'NONE', *, *, #246, .T. ) ;
#86 = SURFACE_STYLE_USAGE ( .BOTH. , #233 ) ;
#87 = CARTESIAN_POINT ( 'NONE',  ( 6.123233995736766300E-016, 5.500000000000000000, 5.000000000000000000 ) ) ;
#88 = ORIENTED_EDGE ( 'NONE', *, *, #117, .T. ) ;
#89 = EDGE_CURVE ( 'NONE', #109, #172, #218, .T. ) ;
#90 = AXIS2_PLACEMENT_3D ( 'NONE', #182, #21, #140 ) ;
#91 = VERTEX_POINT ( 'NONE', #46 ) ;
#92 = EDGE_CURVE ( 'NONE', #109, #15, #107, .T. ) ;
#93 = CLOSED_SHELL ( 'NONE', ( #53, #219, #266, #131, #245, #26, #74, #153, #157 ) ) ;
#94 = ORIENTED_EDGE ( 'NONE', *, *, #89, .F. ) ;
#95 = ORIENTED_EDGE ( 'NONE', *, *, #117, .F. ) ;
#96 = DIRECTION ( 'NONE',  ( 0.0000000000000000000, -1.000000000000000000, 0.0000000000000000000 ) ) ;
#97 = ORIENTED_EDGE ( 'NONE', *, *, #9, .F. ) ;
#98 = DIRECTION ( 'NONE',  ( 0.0000000000000000000, 0.7071067811865493500, 0.7071067811865456900 ) ) ;
#99 = DIRECTION ( 'NONE',  ( 0.0000000000000000000, 0.0000000000000000000, 1.000000000000000000 ) ) ;
#100 = DIRECTION ( 'NONE',  ( 0.0000000000000000000, -0.0000000000000000000, 1.000000000000000000 ) ) ;
#101 = CARTESIAN_POINT ( 'NONE',  ( 0.0000000000000000000, 0.0000000000000000000, 0.0000000000000000000 ) ) ;
#102 = EDGE_CURVE ( 'NONE', #72, #15, #43, .T. ) ;
#103 = ORIENTED_EDGE ( 'NONE', *, *, #214, .T. ) ;
#104 = EDGE_CURVE ( 'NONE', #172, #109, #2, .T. ) ;
#105 = PRODUCT_RELATED_PRODUCT_CATEGORY ( 'part', '', ( #68 ) ) ;
#106 =( NAMED_UNIT ( * ) SI_UNIT ( $, .STERADIAN. ) SOLID_ANGLE_UNIT ( ) );
#107 = LINE ( 'NONE', #87, #50 ) ;
#108 = PRODUCT_DEFINITION_FORMATION_WITH_SPECIFIED_SOURCE ( 'ANY', '', #68, .NOT_KNOWN. ) ;
#109 = VERTEX_POINT ( 'NONE', #196 ) ;
#110 = CONICAL_SURFACE ( 'NONE', #258, 1.299999999999999200, 0.7853981633974456100 ) ;
#111 = VECTOR ( 'NONE', #163, 1000.000000000000000 ) ;
#112 = COLOUR_RGB ( '',0.7921568627450980000, 0.8196078431372548800, 0.9333333333333333500 ) ;
#113 = FACE_OUTER_BOUND ( 'NONE', #224, .T. ) ;
#114 =( NAMED_UNIT ( * ) PLANE_ANGLE_UNIT ( ) SI_UNIT ( $, .RADIAN. ) );
#115 = DIRECTION ( 'NONE',  ( -0.0000000000000000000, -1.000000000000000000, -0.0000000000000000000 ) ) ;
#116 = COLOUR_RGB ( '',0.7921568627450980000, 0.8196078431372548800, 0.9333333333333333500 ) ;
#117 = EDGE_CURVE ( 'NONE', #66, #91, #75, .T. ) ;
#118 = CARTESIAN_POINT ( 'NONE',  ( 0.0000000000000000000, -5.799999999999998000, 0.0000000000000000000 ) ) ;
#119 = DIRECTION ( 'NONE',  ( 1.000000000000000000, 0.0000000000000000000, 0.0000000000000000000 ) ) ;
#120 = DIRECTION ( 'NONE',  ( 8.659560562354910700E-017, 0.7071067811865493500, -0.7071067811865456900 ) ) ;
#121 = EDGE_LOOP ( 'NONE', ( #103, #132, #8, #252 ) ) ;
#122 = CARTESIAN_POINT ( 'NONE',  ( 0.0000000000000000000, -5.799999999999998000, 0.0000000000000000000 ) ) ;
#123 = CARTESIAN_POINT ( 'NONE',  ( 1.836970198721030200E-016, 0.0000000000000000000, -1.500000000000000200 ) ) ;
#124 = PRESENTATION_LAYER_ASSIGNMENT (  '', '', ( #133 ) ) ;
#125 = DIRECTION ( 'NONE',  ( 0.0000000000000000000, 0.0000000000000000000, -1.000000000000000000 ) ) ;
#126 = CYLINDRICAL_SURFACE ( 'NONE', #206, 5.000000000000000000 ) ;
#127 = CARTESIAN_POINT ( 'NONE',  ( 0.0000000000000000000, -6.000000000000000000, 0.0000000000000000000 ) ) ;
#128 = VECTOR ( 'NONE', #56, 1000.000000000000000 ) ;
#129 =( GEOMETRIC_REPRESENTATION_CONTEXT ( 3 ) GLOBAL_UNCERTAINTY_ASSIGNED_CONTEXT ( ( #191 ) ) GLOBAL_UNIT_ASSIGNED_CONTEXT ( ( #185, #1, #40 ) ) REPRESENTATION_CONTEXT ( 'NONE', 'WORKASPACE' ) );
#130 = AXIS2_PLACEMENT_3D ( 'NONE', #148, #67, #237 ) ;
#131 = ADVANCED_FACE ( 'NONE', ( #211 ), #30, .T. ) ;
#132 = ORIENTED_EDGE ( 'NONE', *, *, #9, .T. ) ;
#133 = STYLED_ITEM ( 'NONE', ( #174 ), #242 ) ;
#134 = SURFACE_STYLE_USAGE ( .BOTH. , #16 ) ;
#135 = PRESENTATION_STYLE_ASSIGNMENT (( #86 ) ) ;
#136 = DIRECTION ( 'NONE',  ( -0.0000000000000000000, -1.000000000000000000, -0.0000000000000000000 ) ) ;
#137 = DIRECTION ( 'NONE',  ( 0.0000000000000000000, 0.0000000000000000000, 1.000000000000000000 ) ) ;
#138 = DIRECTION ( 'NONE',  ( 0.0000000000000000000, 0.0000000000000000000, 1.000000000000000000 ) ) ;
#139 = FACE_OUTER_BOUND ( 'NONE', #263, .T. ) ;
#140 = DIRECTION ( 'NONE',  ( 0.0000000000000000000, 0.0000000000000000000, -1.000000000000000000 ) ) ;
#141 = VERTEX_POINT ( 'NONE', #187 ) ;
#142 = DIRECTION ( 'NONE',  ( 0.0000000000000000000, 1.000000000000000000, 0.0000000000000000000 ) ) ;
#143 = DIRECTION ( 'NONE',  ( 0.0000000000000000000, 1.000000000000000000, 0.0000000000000000000 ) ) ;
#144 = FACE_BOUND ( 'NONE', #57, .T. ) ;
#145 =( GEOMETRIC_REPRESENTATION_CONTEXT ( 3 ) GLOBAL_UNCERTAINTY_ASSIGNED_CONTEXT ( ( #264 ) ) GLOBAL_UNIT_ASSIGNED_CONTEXT ( ( #268, #114, #248 ) ) REPRESENTATION_CONTEXT ( 'NONE', 'WORKASPACE' ) );
#146 = CARTESIAN_POINT ( 'NONE',  ( 0.0000000000000000000, -6.000000000000000000, 0.0000000000000000000 ) ) ;
#147 = AXIS2_PLACEMENT_3D ( 'NONE', #146, #10, #42 ) ;
#148 = CARTESIAN_POINT ( 'NONE',  ( 0.0000000000000000000, -6.000000000000000000, 0.0000000000000000000 ) ) ;
#149 = ORIENTED_EDGE ( 'NONE', *, *, #165, .T. ) ;
#150 = FACE_OUTER_BOUND ( 'NONE', #207, .T. ) ;
#151 = CIRCLE ( 'NONE', #147, 1.299999999999999200 ) ;
#152 = VERTEX_POINT ( 'NONE', #231 ) ;
#153 = ADVANCED_FACE ( 'NONE', ( #139 ), #257, .T. ) ;
#154 = EDGE_CURVE ( 'NONE', #14, #152, #260, .T. ) ;
#155 = SURFACE_STYLE_FILL_AREA ( #203 ) ;
#156 = FILL_AREA_STYLE ('',( #28 ) ) ;
#157 = ADVANCED_FACE ( 'NONE', ( #150 ), #110, .T. ) ;
#158 = CARTESIAN_POINT ( 'NONE',  ( 0.0000000000000000000, 5.500000000000000000, 0.0000000000000000000 ) ) ;
#159 = MECHANICAL_DESIGN_GEOMETRIC_PRESENTATION_REPRESENTATION (  '', ( #27 ), #12 ) ;
#160 = CIRCLE ( 'NONE', #24, 1.500000000000000200 ) ;
#161 = APPLICATION_CONTEXT ( 'automotive_design' ) ;
#162 = CARTESIAN_POINT ( 'NONE',  ( 0.0000000000000000000, 0.0000000000000000000, -5.000000000000000000 ) ) ;
#163 = DIRECTION ( 'NONE',  ( -0.0000000000000000000, 1.000000000000000000, -0.0000000000000000000 ) ) ;
#164 = DIRECTION ( 'NONE',  ( 0.0000000000000000000, -0.0000000000000000000, -1.000000000000000000 ) ) ;
#165 = EDGE_CURVE ( 'NONE', #14, #91, #192, .T. ) ;
#166 = DIRECTION ( 'NONE',  ( 0.0000000000000000000, 0.0000000000000000000, 1.000000000000000000 ) ) ;
#167 = AXIS2_PLACEMENT_3D ( 'NONE', #101, #171, #65 ) ;
#168 = ORIENTED_EDGE ( 'NONE', *, *, #178, .F. ) ;
#169 = DIRECTION ( 'NONE',  ( 0.0000000000000000000, 0.0000000000000000000, 1.000000000000000000 ) ) ;
#170 = CIRCLE ( 'NONE', #225, 1.500000000000000200 ) ;
#171 = DIRECTION ( 'NONE',  ( 0.0000000000000000000, 1.000000000000000000, 0.0000000000000000000 ) ) ;
#172 = VERTEX_POINT ( 'NONE', #80 ) ;
#173 = DIRECTION ( 'NONE',  ( -0.0000000000000000000, -1.000000000000000000, -0.0000000000000000000 ) ) ;
#174 = PRESENTATION_STYLE_ASSIGNMENT (( #134 ) ) ;
#175 = ORIENTED_EDGE ( 'NONE', *, *, #92, .T. ) ;
#176 = AXIS2_PLACEMENT_3D ( 'NONE', #215, #142, #169 ) ;
#177 = CARTESIAN_POINT ( 'NONE',  ( 0.0000000000000000000, 5.500000000000000000, -5.000000000000000000 ) ) ;
#178 = EDGE_CURVE ( 'NONE', #141, #47, #160, .T. ) ;
#179 = APPLICATION_CONTEXT ( 'automotive_design' ) ;
#180 = FACE_OUTER_BOUND ( 'NONE', #247, .T. ) ;
#181 = CARTESIAN_POINT ( 'NONE',  ( 0.0000000000000000000, -6.000000000000000000, 0.0000000000000000000 ) ) ;
#182 = CARTESIAN_POINT ( 'NONE',  ( 0.0000000000000000000, -6.000000000000000000, 0.0000000000000000000 ) ) ;
#183 = CONICAL_SURFACE ( 'NONE', #220, 1.299999999999999200, 0.7853981633974456100 ) ;
#184 = CARTESIAN_POINT ( 'NONE',  ( 0.0000000000000000000, 5.500000000000000000, 0.0000000000000000000 ) ) ;
#185 =( LENGTH_UNIT ( ) NAMED_UNIT ( * ) SI_UNIT ( .MILLI., .METRE. ) );
#186 = LINE ( 'NONE', #177, #128 ) ;
#187 = CARTESIAN_POINT ( 'NONE',  ( 0.0000000000000000000, 0.0000000000000000000, 1.500000000000000200 ) ) ;
#188 = AXIS2_PLACEMENT_3D ( 'NONE', #195, #243, #119 ) ;
#189 = CARTESIAN_POINT ( 'NONE',  ( 1.836970198721030200E-016, -6.000000000000000000, -1.500000000000000200 ) ) ;
#190 = CARTESIAN_POINT ( 'NONE',  ( 1.836970198721030200E-016, -5.799999999999998000, -1.500000000000000200 ) ) ;
#191 = UNCERTAINTY_MEASURE_WITH_UNIT (LENGTH_MEASURE( 1.000000000000000100E-005 ), #185, 'distance_accuracy_value', 'NONE');
#192 = LINE ( 'NONE', #251, #217 ) ;
#193 = ORIENTED_EDGE ( 'NONE', *, *, #104, .F. ) ;
#194 = EDGE_CURVE ( 'NONE', #15, #72, #58, .T. ) ;
#195 = CARTESIAN_POINT ( 'NONE',  ( 0.0000000000000000000, 0.0000000000000000000, 0.0000000000000000000 ) ) ;
#196 = CARTESIAN_POINT ( 'NONE',  ( 6.123233995736766300E-016, 5.500000000000000000, 5.000000000000000000 ) ) ;
#197 = EDGE_CURVE ( 'NONE', #152, #66, #210, .T. ) ;
#198 = DIRECTION ( 'NONE',  ( 0.0000000000000000000, 1.000000000000000000, 0.0000000000000000000 ) ) ;
#199 = DIRECTION ( 'NONE',  ( 0.0000000000000000000, 0.0000000000000000000, -1.000000000000000000 ) ) ;
#200 = VECTOR ( 'NONE', #25, 1000.000000000000000 ) ;
#201 = AXIS2_PLACEMENT_3D ( 'NONE', #209, #238, #11 ) ;
#202 = CARTESIAN_POINT ( 'NONE',  ( 0.0000000000000000000, -6.000000000000000000, 0.0000000000000000000 ) ) ;
#203 = FILL_AREA_STYLE ('',( #230 ) ) ;
#204 = DIRECTION ( 'NONE',  ( 0.0000000000000000000, 1.000000000000000000, 0.0000000000000000000 ) ) ;
#205 = DIRECTION ( 'NONE',  ( 0.0000000000000000000, 0.0000000000000000000, -1.000000000000000000 ) ) ;
#206 = AXIS2_PLACEMENT_3D ( 'NONE', #226, #136, #222 ) ;
#207 = EDGE_LOOP ( 'NONE', ( #244, #213, #149, #95 ) ) ;
#208 =( LENGTH_UNIT ( ) NAMED_UNIT ( * ) SI_UNIT ( .MILLI., .METRE. ) );
#209 = CARTESIAN_POINT ( 'NONE',  ( 0.0000000000000000000, 0.0000000000000000000, 0.0000000000000000000 ) ) ;
#210 = LINE ( 'NONE', #79, #13 ) ;
#211 = FACE_OUTER_BOUND ( 'NONE', #240, .T. ) ;
#212 = CARTESIAN_POINT ( 'NONE',  ( 0.0000000000000000000, 0.0000000000000000000, 0.0000000000000000000 ) ) ;
#213 = ORIENTED_EDGE ( 'NONE', *, *, #154, .F. ) ;
#214 = EDGE_CURVE ( 'NONE', #91, #66, #170, .T. ) ;
#215 = CARTESIAN_POINT ( 'NONE',  ( 0.0000000000000000000, 5.500000000000000000, 0.0000000000000000000 ) ) ;
#216 = ORIENTED_EDGE ( 'NONE', *, *, #104, .T. ) ;
#217 = VECTOR ( 'NONE', #98, 1000.000000000000100 ) ;
#218 = CIRCLE ( 'NONE', #176, 5.000000000000000000 ) ;
#219 = ADVANCED_FACE ( 'NONE', ( #71 ), #249, .T. ) ;
#220 = AXIS2_PLACEMENT_3D ( 'NONE', #127, #143, #99 ) ;
#221 = ORIENTED_EDGE ( 'NONE', *, *, #214, .F. ) ;
#222 = DIRECTION ( 'NONE',  ( 0.0000000000000000000, 0.0000000000000000000, -1.000000000000000000 ) ) ;
#223 = ORIENTED_EDGE ( 'NONE', *, *, #76, .T. ) ;
#224 = EDGE_LOOP ( 'NONE', ( #17, #254 ) ) ;
#225 = AXIS2_PLACEMENT_3D ( 'NONE', #118, #250, #78 ) ;
#226 = CARTESIAN_POINT ( 'NONE',  ( 0.0000000000000000000, 5.500000000000000000, 0.0000000000000000000 ) ) ;
#227 = SHAPE_DEFINITION_REPRESENTATION ( #267, #242 ) ;
#228 = ORIENTED_EDGE ( 'NONE', *, *, #92, .F. ) ;
#229 = ORIENTED_EDGE ( 'NONE', *, *, #194, .T. ) ;
#230 = FILL_AREA_STYLE_COLOUR ( '', #112 ) ;
#231 = CARTESIAN_POINT ( 'NONE',  ( 1.714505518806293900E-016, -6.000000000000000000, -1.299999999999999200 ) ) ;
#232 = ORIENTED_EDGE ( 'NONE', *, *, #165, .F. ) ;
#233 = SURFACE_SIDE_STYLE ('',( #155 ) ) ;
#234 = CARTESIAN_POINT ( 'NONE',  ( 0.0000000000000000000, -6.000000000000000000, 0.0000000000000000000 ) ) ;
#235 =( NAMED_UNIT ( * ) PLANE_ANGLE_UNIT ( ) SI_UNIT ( $, .RADIAN. ) );
#236 = LINE ( 'NONE', #23, #111 ) ;
#237 = DIRECTION ( 'NONE',  ( 0.0000000000000000000, 0.0000000000000000000, 1.000000000000000000 ) ) ;
#238 = DIRECTION ( 'NONE',  ( 0.0000000000000000000, 1.000000000000000000, 0.0000000000000000000 ) ) ;
#239 = PRESENTATION_LAYER_ASSIGNMENT (  '', '', ( #27 ) ) ;
#240 = EDGE_LOOP ( 'NONE', ( #228, #193, #85, #51 ) ) ;
#241 = AXIS2_PLACEMENT_3D ( 'NONE', #234, #35, #164 ) ;
#242 = ADVANCED_BREP_SHAPE_REPRESENTATION ( '10204500d', ( #62, #188 ), #129 ) ;
#243 = DIRECTION ( 'NONE',  ( 0.0000000000000000000, 0.0000000000000000000, 1.000000000000000000 ) ) ;
#244 = ORIENTED_EDGE ( 'NONE', *, *, #197, .F. ) ;
#245 = ADVANCED_FACE ( 'NONE', ( #22 ), #253, .T. ) ;
#246 = EDGE_CURVE ( 'NONE', #172, #72, #186, .T. ) ;
#247 = EDGE_LOOP ( 'NONE', ( #97, #88, #41, #32 ) ) ;
#248 =( NAMED_UNIT ( * ) SI_UNIT ( $, .STERADIAN. ) SOLID_ANGLE_UNIT ( ) );
#249 = CYLINDRICAL_SURFACE ( 'NONE', #269, 1.500000000000000200 ) ;
#250 = DIRECTION ( 'NONE',  ( 0.0000000000000000000, 1.000000000000000000, 0.0000000000000000000 ) ) ;
#251 = CARTESIAN_POINT ( 'NONE',  ( 0.0000000000000000000, -6.000000000000000000, 1.299999999999999200 ) ) ;
#252 = ORIENTED_EDGE ( 'NONE', *, *, #60, .F. ) ;
#253 = PLANE ( 'NONE',  #37 ) ;
#254 = ORIENTED_EDGE ( 'NONE', *, *, #194, .F. ) ;
#255 = DIRECTION ( 'NONE',  ( 0.0000000000000000000, -1.000000000000000000, 0.0000000000000000000 ) ) ;
#256 = FACE_OUTER_BOUND ( 'NONE', #48, .T. ) ;
#257 = PLANE ( 'NONE',  #241 ) ;
#258 = AXIS2_PLACEMENT_3D ( 'NONE', #202, #82, #4 ) ;
#259 = PLANE ( 'NONE',  #167 ) ;
#260 = CIRCLE ( 'NONE', #90, 1.299999999999999200 ) ;
#261 = FACE_OUTER_BOUND ( 'NONE', #270, .T. ) ;
#262 = AXIS2_PLACEMENT_3D ( 'NONE', #5, #173, #125 ) ;
#263 = EDGE_LOOP ( 'NONE', ( #45, #223 ) ) ;
#264 = UNCERTAINTY_MEASURE_WITH_UNIT (LENGTH_MEASURE( 1.000000000000000100E-005 ), #268, 'distance_accuracy_value', 'NONE');
#265 = ORIENTED_EDGE ( 'NONE', *, *, #76, .F. ) ;
#266 = ADVANCED_FACE ( 'NONE', ( #256 ), #126, .T. ) ;
#267 = PRODUCT_DEFINITION_SHAPE ( 'NONE', 'NONE',  #49 ) ;
#268 =( LENGTH_UNIT ( ) NAMED_UNIT ( * ) SI_UNIT ( .MILLI., .METRE. ) );
#269 = AXIS2_PLACEMENT_3D ( 'NONE', #181, #3, #137 ) ;
#270 = EDGE_LOOP ( 'NONE', ( #265, #34, #221, #232 ) ) ;
ENDSEC;
END-ISO-10303-21;
