ISO-10303-21;
HEADER;
FILE_DESCRIPTION (( 'STEP AP203' ),
    '1' );
FILE_NAME ('10214100.STEP',
    '2022-01-07T05:31:10',
    ( '' ),
    ( '' ),
    'SwSTEP 2.0',
    'SolidWorks 2021',
    '' );
FILE_SCHEMA (( 'CONFIG_CONTROL_DESIGN' ));
ENDSEC;

DATA;
#1 = CARTESIAN_POINT ( 'NONE',  ( -457.0000000000001137, 374.4999999999999432, 0.4000000000000000222 ) ) ;
#2 = ORIENTED_EDGE ( 'NONE', *, *, #156, .T. ) ;
#3 = CARTESIAN_POINT ( 'NONE',  ( 456.9999999999999432, -374.5000000000001137, 0.000000000000000000 ) ) ;
#4 = CALENDAR_DATE ( 2022, 7, 1 ) ;
#5 = FACE_OUTER_BOUND ( 'NONE', #98, .T. ) ;
#6 = VECTOR ( 'NONE', #121, 1000.000000000000000 ) ;
#7 = DATE_TIME_ROLE ( 'creation_date' ) ;
#8 = DATE_AND_TIME ( #67, #88 ) ;
#9 = AXIS2_PLACEMENT_3D ( 'NONE', #16, #86, #138 ) ;
#10 = CARTESIAN_POINT ( 'NONE',  ( 456.9999999999999432, -374.5000000000001137, 0.4000000000000000222 ) ) ;
#11 = VERTEX_POINT ( 'NONE', #1 ) ;
#12 = ORIENTED_EDGE ( 'NONE', *, *, #112, .T. ) ;
#13 = APPROVAL ( #174, 'UNSPECIFIED' ) ;
#14 = VERTEX_POINT ( 'NONE', #3 ) ;
#15 = ORIENTED_EDGE ( 'NONE', *, *, #35, .T. ) ;
#16 = CARTESIAN_POINT ( 'NONE',  ( 456.9999999999999432, 374.4999999999999432, 0.4000000000000000222 ) ) ;
#17 = CALENDAR_DATE ( 2022, 7, 1 ) ;
#18 = VERTEX_POINT ( 'NONE', #110 ) ;
#19 = APPLICATION_CONTEXT ( 'configuration controlled 3d designs of mechanical parts and assemblies' ) ;
#20 = CARTESIAN_POINT ( 'NONE',  ( 456.9999999999999432, 374.4999999999999432, 0.4000000000000000222 ) ) ;
#21 = DIRECTION ( 'NONE',  ( 1.000000000000000000, 0.000000000000000000, 0.000000000000000000 ) ) ;
#22 = SECURITY_CLASSIFICATION_LEVEL ( 'unclassified' ) ;
#23 = CC_DESIGN_DATE_AND_TIME_ASSIGNMENT ( #8, #87, ( #127 ) ) ;
#24 = PERSON_AND_ORGANIZATION_ROLE ( 'design_owner' ) ;
#25 = CARTESIAN_POINT ( 'NONE',  ( -457.0000000000001137, 374.4999999999999432, 0.4000000000000000222 ) ) ;
#26 = DIRECTION ( 'NONE',  ( 0.000000000000000000, -0.000000000000000000, -1.000000000000000000 ) ) ;
#27 = CARTESIAN_POINT ( 'NONE',  ( -457.0000000000001137, 374.4999999999999432, 0.4000000000000000222 ) ) ;
#28 = VECTOR ( 'NONE', #116, 1000.000000000000000 ) ;
#29 = ADVANCED_FACE ( 'NONE', ( #5 ), #32, .F. ) ;
#30 = CARTESIAN_POINT ( 'NONE',  ( -457.0000000000001137, 374.4999999999999432, 0.000000000000000000 ) ) ;
#31 = ORIENTED_EDGE ( 'NONE', *, *, #64, .F. ) ;
#32 = PLANE ( 'NONE',  #48 ) ;
#33 = PERSON ( 'UNSPECIFIED', 'UNSPECIFIED', 'UNSPECIFIED', ('UNSPECIFIED'), ('UNSPECIFIED'), ('UNSPECIFIED') ) ;
#34 = AXIS2_PLACEMENT_3D ( 'NONE', #100, #180, #159 ) ;
#35 = EDGE_CURVE ( 'NONE', #146, #18, #105, .T. ) ;
#36 = PLANE ( 'NONE',  #9 ) ;
#37 = ORIENTED_EDGE ( 'NONE', *, *, #99, .F. ) ;
#38 = VECTOR ( 'NONE', #199, 1000.000000000000000 ) ;
#39 = LINE ( 'NONE', #115, #81 ) ;
#40 = CARTESIAN_POINT ( 'NONE',  ( -457.0000000000001137, 374.4999999999999432, 0.000000000000000000 ) ) ;
#41 = COORDINATED_UNIVERSAL_TIME_OFFSET ( 1, 0, .AHEAD. ) ;
#42 = LINE ( 'NONE', #135, #162 ) ;
#43 = DIRECTION ( 'NONE',  ( -0.000000000000000000, 1.000000000000000000, -0.000000000000000000 ) ) ;
#44 = AXIS2_PLACEMENT_3D ( 'NONE', #52, #151, #26 ) ;
#45 = ADVANCED_FACE ( 'NONE', ( #219 ), #36, .F. ) ;
#46 = CARTESIAN_POINT ( 'NONE',  ( -457.0000000000000000, -374.5000000000001137, 0.000000000000000000 ) ) ;
#47 = AXIS2_PLACEMENT_3D ( 'NONE', #175, #75, #134 ) ;
#48 = AXIS2_PLACEMENT_3D ( 'NONE', #84, #217, #189 ) ;
#49 = LINE ( 'NONE', #30, #140 ) ;
#50 = APPROVAL_PERSON_ORGANIZATION ( #57, #172, #53 ) ;
#51 = VERTEX_POINT ( 'NONE', #97 ) ;
#52 = CARTESIAN_POINT ( 'NONE',  ( -457.0000000000001137, 374.4999999999999432, 0.4000000000000000222 ) ) ;
#53 = APPROVAL_ROLE ( '' ) ;
#54 = AXIS2_PLACEMENT_3D ( 'NONE', #226, #131, #21 ) ;
#55 = CARTESIAN_POINT ( 'NONE',  ( -457.0000000000000000, -374.5000000000001137, 0.4000000000000000222 ) ) ;
#56 = PRODUCT_DEFINITION ( 'UNKNOWN', '', #74, #201 ) ;
#57 = PERSON_AND_ORGANIZATION ( #33, #205 ) ;
#58 = DATE_AND_TIME ( #93, #168 ) ;
#59 =( NAMED_UNIT ( * ) SI_UNIT ( $, .STERADIAN. ) SOLID_ANGLE_UNIT ( ) );
#60 = CARTESIAN_POINT ( 'NONE',  ( -457.0000000000000000, -374.5000000000001137, 0.4000000000000000222 ) ) ;
#61 = APPLICATION_PROTOCOL_DEFINITION ( 'international standard', 'config_control_design', 1994, #19 ) ;
#62 = DIRECTION ( 'NONE',  ( -0.000000000000000000, -0.000000000000000000, -1.000000000000000000 ) ) ;
#63 = EDGE_CURVE ( 'NONE', #51, #14, #215, .T. ) ;
#64 = EDGE_CURVE ( 'NONE', #126, #51, #49, .T. ) ;
#65 = ORIENTED_EDGE ( 'NONE', *, *, #228, .F. ) ;
#66 = APPROVAL_STATUS ( 'not_yet_approved' ) ;
#67 = CALENDAR_DATE ( 2022, 7, 1 ) ;
#68 = LINE ( 'NONE', #129, #119 ) ;
#69 = COORDINATED_UNIVERSAL_TIME_OFFSET ( 1, 0, .AHEAD. ) ;
#70 = LINE ( 'NONE', #25, #224 ) ;
#71 = MECHANICAL_CONTEXT ( 'NONE', #19, 'mechanical' ) ;
#72 = PERSON_AND_ORGANIZATION ( #33, #205 ) ;
#73 = LINE ( 'NONE', #27, #203 ) ;
#74 = PRODUCT_DEFINITION_FORMATION_WITH_SPECIFIED_SOURCE ( 'ANY', '', #120, .NOT_KNOWN. ) ;
#75 = DIRECTION ( 'NONE',  ( 0.000000000000000000, 0.000000000000000000, 1.000000000000000000 ) ) ;
#76 = CC_DESIGN_SECURITY_CLASSIFICATION ( #127, ( #74 ) ) ;
#77 = DIRECTION ( 'NONE',  ( 1.482273731141730806E-16, -1.000000000000000000, 0.000000000000000000 ) ) ;
#78 = ORIENTED_EDGE ( 'NONE', *, *, #202, .T. ) ;
#79 = EDGE_LOOP ( 'NONE', ( #2, #186, #142, #12 ) ) ;
#80 = UNCERTAINTY_MEASURE_WITH_UNIT (LENGTH_MEASURE( 1.000000000000000082E-05 ), #192, 'distance_accuracy_value', 'NONE');
#81 = VECTOR ( 'NONE', #193, 1000.000000000000000 ) ;
#82 = PLANE ( 'NONE',  #44 ) ;
#83 = VERTEX_POINT ( 'NONE', #10 ) ;
#84 = CARTESIAN_POINT ( 'NONE',  ( 456.9999999999998863, -374.5000000000001137, 0.000000000000000000 ) ) ;
#85 = FACE_OUTER_BOUND ( 'NONE', #164, .T. ) ;
#86 = DIRECTION ( 'NONE',  ( -1.000000000000000000, 0.000000000000000000, 0.000000000000000000 ) ) ;
#87 = DATE_TIME_ROLE ( 'classification_date' ) ;
#88 = LOCAL_TIME ( 6, 31, 10.00000000000000000, #69 ) ;
#89 = ORIENTED_EDGE ( 'NONE', *, *, #64, .T. ) ;
#90 = PERSON_AND_ORGANIZATION ( #33, #205 ) ;
#91 = CALENDAR_DATE ( 2022, 7, 1 ) ;
#92 = DIRECTION ( 'NONE',  ( 1.482273731141730806E-16, -1.000000000000000000, 0.000000000000000000 ) ) ;
#93 = CALENDAR_DATE ( 2022, 7, 1 ) ;
#94 = APPROVAL_DATE_TIME ( #108, #218 ) ;
#95 = VECTOR ( 'NONE', #213, 1000.000000000000000 ) ;
#96 = CC_DESIGN_PERSON_AND_ORGANIZATION_ASSIGNMENT ( #130, #206, ( #74 ) ) ;
#97 = CARTESIAN_POINT ( 'NONE',  ( -457.0000000000000000, -374.5000000000001137, 0.000000000000000000 ) ) ;
#98 = EDGE_LOOP ( 'NONE', ( #167, #170, #31, #197 ) ) ;
#99 = EDGE_CURVE ( 'NONE', #11, #126, #158, .T. ) ;
#100 = CARTESIAN_POINT ( 'NONE',  ( -457.0000000000001137, 374.4999999999999432, 0.4000000000000000222 ) ) ;
#101 = ORIENTED_EDGE ( 'NONE', *, *, #228, .T. ) ;
#102 = ORIENTED_EDGE ( 'NONE', *, *, #63, .T. ) ;
#103 = EDGE_LOOP ( 'NONE', ( #89, #65, #123, #200 ) ) ;
#104 = CC_DESIGN_PERSON_AND_ORGANIZATION_ASSIGNMENT ( #173, #150, ( #127 ) ) ;
#105 = LINE ( 'NONE', #143, #109 ) ;
#106 = ADVANCED_FACE ( 'NONE', ( #122 ), #216, .F. ) ;
#107 = EDGE_LOOP ( 'NONE', ( #161, #78, #181, #237 ) ) ;
#108 = DATE_AND_TIME ( #4, #118 ) ;
#109 = VECTOR ( 'NONE', #166, 1000.000000000000000 ) ;
#110 = CARTESIAN_POINT ( 'NONE',  ( 456.9999999999999432, 374.4999999999999432, 0.000000000000000000 ) ) ;
#111 = PERSON_AND_ORGANIZATION_ROLE ( 'creator' ) ;
#112 = EDGE_CURVE ( 'NONE', #83, #14, #139, .T. ) ;
#113 = FACE_OUTER_BOUND ( 'NONE', #125, .T. ) ;
#114 = DATE_AND_TIME ( #91, #190 ) ;
#115 = CARTESIAN_POINT ( 'NONE',  ( -457.0000000000000000, -374.5000000000001137, 0.4000000000000000222 ) ) ;
#116 = DIRECTION ( 'NONE',  ( 1.000000000000000000, 0.000000000000000000, 0.000000000000000000 ) ) ;
#117 = CARTESIAN_POINT ( 'NONE',  ( -457.0000000000000000, -374.5000000000001137, 0.4000000000000000222 ) ) ;
#118 = LOCAL_TIME ( 6, 31, 10.00000000000000000, #188 ) ;
#119 = VECTOR ( 'NONE', #209, 1000.000000000000000 ) ;
#120 = PRODUCT ( '10214100', '10214100', '', ( #71 ) ) ;
#121 = DIRECTION ( 'NONE',  ( 1.000000000000000000, 0.000000000000000000, 0.000000000000000000 ) ) ;
#122 = FACE_OUTER_BOUND ( 'NONE', #103, .T. ) ;
#123 = ORIENTED_EDGE ( 'NONE', *, *, #233, .F. ) ;
#124 = ADVANCED_FACE ( 'NONE', ( #85 ), #82, .F. ) ;
#125 = EDGE_LOOP ( 'NONE', ( #102, #222, #183, #101 ) ) ;
#126 = VERTEX_POINT ( 'NONE', #176 ) ;
#127 = SECURITY_CLASSIFICATION ( '', '', #22 ) ;
#128 = DIRECTION ( 'NONE',  ( 0.000000000000000000, -0.000000000000000000, 1.000000000000000000 ) ) ;
#129 = CARTESIAN_POINT ( 'NONE',  ( 456.9999999999999432, 374.4999999999999432, 0.4000000000000000222 ) ) ;
#130 = PERSON_AND_ORGANIZATION ( #33, #205 ) ;
#131 = DIRECTION ( 'NONE',  ( -0.000000000000000000, 0.000000000000000000, 1.000000000000000000 ) ) ;
#132 = DATE_AND_TIME ( #17, #187 ) ;
#133 = PLANE ( 'NONE',  #195 ) ;
#134 = DIRECTION ( 'NONE',  ( 1.000000000000000000, 0.000000000000000000, 0.000000000000000000 ) ) ;
#135 = CARTESIAN_POINT ( 'NONE',  ( 456.9999999999999432, 374.4999999999999432, 0.000000000000000000 ) ) ;
#136 = VECTOR ( 'NONE', #62, 1000.000000000000000 ) ;
#137 = EDGE_CURVE ( 'NONE', #18, #126, #232, .T. ) ;
#138 = DIRECTION ( 'NONE',  ( 0.000000000000000000, 0.000000000000000000, 1.000000000000000000 ) ) ;
#139 = LINE ( 'NONE', #236, #38 ) ;
#140 = VECTOR ( 'NONE', #77, 1000.000000000000000 ) ;
#141 = CC_DESIGN_DATE_AND_TIME_ASSIGNMENT ( #132, #7, ( #56 ) ) ;
#142 = ORIENTED_EDGE ( 'NONE', *, *, #234, .F. ) ;
#143 = CARTESIAN_POINT ( 'NONE',  ( 456.9999999999999432, 374.4999999999999432, 0.4000000000000000222 ) ) ;
#144 = EDGE_CURVE ( 'NONE', #160, #83, #230, .T. ) ;
#145 = PERSON_AND_ORGANIZATION ( #33, #205 ) ;
#146 = VERTEX_POINT ( 'NONE', #20 ) ;
#147 = MANIFOLD_SOLID_BREP ( 'Aufsatz-Linear austragen1', #155 ) ;
#148 =( GEOMETRIC_REPRESENTATION_CONTEXT ( 3 ) GLOBAL_UNCERTAINTY_ASSIGNED_CONTEXT ( ( #80 ) ) GLOBAL_UNIT_ASSIGNED_CONTEXT ( ( #192, #177, #59 ) ) REPRESENTATION_CONTEXT ( 'NONE', 'WORKASPACE' ) );
#149 = APPLICATION_PROTOCOL_DEFINITION ( 'international standard', 'config_control_design', 1994, #220 ) ;
#150 = PERSON_AND_ORGANIZATION_ROLE ( 'classification_officer' ) ;
#151 = DIRECTION ( 'NONE',  ( 0.000000000000000000, -1.000000000000000000, 0.000000000000000000 ) ) ;
#152 = CC_DESIGN_PERSON_AND_ORGANIZATION_ASSIGNMENT ( #90, #24, ( #120 ) ) ;
#153 = PERSON_AND_ORGANIZATION ( #33, #205 ) ;
#154 = COORDINATED_UNIVERSAL_TIME_OFFSET ( 1, 0, .AHEAD. ) ;
#155 = CLOSED_SHELL ( 'NONE', ( #45, #124, #106, #184, #179, #29 ) ) ;
#156 = EDGE_CURVE ( 'NONE', #14, #18, #42, .T. ) ;
#157 = PRODUCT_DEFINITION_SHAPE ( 'NONE', 'NONE',  #56 ) ;
#158 = LINE ( 'NONE', #235, #136 ) ;
#159 = DIRECTION ( 'NONE',  ( -1.482273731141730806E-16, 1.000000000000000000, 0.000000000000000000 ) ) ;
#160 = VERTEX_POINT ( 'NONE', #117 ) ;
#161 = ORIENTED_EDGE ( 'NONE', *, *, #234, .T. ) ;
#162 = VECTOR ( 'NONE', #43, 1000.000000000000000 ) ;
#163 = CC_DESIGN_PERSON_AND_ORGANIZATION_ASSIGNMENT ( #145, #111, ( #56 ) ) ;
#164 = EDGE_LOOP ( 'NONE', ( #204, #37, #185, #15 ) ) ;
#165 = ADVANCED_BREP_SHAPE_REPRESENTATION ( '10214100', ( #147, #47 ), #148 ) ;
#166 = DIRECTION ( 'NONE',  ( -0.000000000000000000, -0.000000000000000000, -1.000000000000000000 ) ) ;
#167 = ORIENTED_EDGE ( 'NONE', *, *, #156, .F. ) ;
#168 = LOCAL_TIME ( 6, 31, 10.00000000000000000, #41 ) ;
#169 = PERSON_AND_ORGANIZATION_ROLE ( 'design_supplier' ) ;
#170 = ORIENTED_EDGE ( 'NONE', *, *, #63, .F. ) ;
#171 = FACE_OUTER_BOUND ( 'NONE', #107, .T. ) ;
#172 = APPROVAL ( #208, 'UNSPECIFIED' ) ;
#173 = PERSON_AND_ORGANIZATION ( #33, #205 ) ;
#174 = APPROVAL_STATUS ( 'not_yet_approved' ) ;
#175 = CARTESIAN_POINT ( 'NONE',  ( 0.000000000000000000, 0.000000000000000000, 0.000000000000000000 ) ) ;
#176 = CARTESIAN_POINT ( 'NONE',  ( -457.0000000000001137, 374.4999999999999432, 0.000000000000000000 ) ) ;
#177 =( NAMED_UNIT ( * ) PLANE_ANGLE_UNIT ( ) SI_UNIT ( $, .RADIAN. ) );
#178 = CC_DESIGN_APPROVAL ( #172, ( #127 ) ) ;
#179 = ADVANCED_FACE ( 'NONE', ( #171 ), #212, .T. ) ;
#180 = DIRECTION ( 'NONE',  ( 1.000000000000000000, 1.482273731141730806E-16, -0.000000000000000000 ) ) ;
#181 = ORIENTED_EDGE ( 'NONE', *, *, #233, .T. ) ;
#182 = CC_DESIGN_APPROVAL ( #218, ( #56 ) ) ;
#183 = ORIENTED_EDGE ( 'NONE', *, *, #144, .F. ) ;
#184 = ADVANCED_FACE ( 'NONE', ( #113 ), #133, .F. ) ;
#185 = ORIENTED_EDGE ( 'NONE', *, *, #202, .F. ) ;
#186 = ORIENTED_EDGE ( 'NONE', *, *, #35, .F. ) ;
#187 = LOCAL_TIME ( 6, 31, 10.00000000000000000, #210 ) ;
#188 = COORDINATED_UNIVERSAL_TIME_OFFSET ( 1, 0, .AHEAD. ) ;
#189 = DIRECTION ( 'NONE',  ( 1.000000000000000000, 0.000000000000000000, 0.000000000000000000 ) ) ;
#190 = LOCAL_TIME ( 6, 31, 10.00000000000000000, #154 ) ;
#191 = APPROVAL_DATE_TIME ( #58, #13 ) ;
#192 =( LENGTH_UNIT ( ) NAMED_UNIT ( * ) SI_UNIT ( .MILLI., .METRE. ) );
#193 = DIRECTION ( 'NONE',  ( -0.000000000000000000, -0.000000000000000000, -1.000000000000000000 ) ) ;
#194 = DIRECTION ( 'NONE',  ( 0.000000000000000000, 1.000000000000000000, 0.000000000000000000 ) ) ;
#195 = AXIS2_PLACEMENT_3D ( 'NONE', #55, #194, #128 ) ;
#196 = PRODUCT_RELATED_PRODUCT_CATEGORY ( 'detail', '', ( #120 ) ) ;
#197 = ORIENTED_EDGE ( 'NONE', *, *, #137, .F. ) ;
#198 = APPROVAL_PERSON_ORGANIZATION ( #72, #13, #227 ) ;
#199 = DIRECTION ( 'NONE',  ( -0.000000000000000000, -0.000000000000000000, -1.000000000000000000 ) ) ;
#200 = ORIENTED_EDGE ( 'NONE', *, *, #99, .T. ) ;
#201 = DESIGN_CONTEXT ( 'detailed design', #220, 'design' ) ;
#202 = EDGE_CURVE ( 'NONE', #146, #11, #73, .T. ) ;
#203 = VECTOR ( 'NONE', #207, 1000.000000000000000 ) ;
#204 = ORIENTED_EDGE ( 'NONE', *, *, #137, .T. ) ;
#205 = ORGANIZATION ( 'UNSPECIFIED', 'UNSPECIFIED', '' ) ;
#206 = PERSON_AND_ORGANIZATION_ROLE ( 'creator' ) ;
#207 = DIRECTION ( 'NONE',  ( -1.000000000000000000, -0.000000000000000000, -0.000000000000000000 ) ) ;
#208 = APPROVAL_STATUS ( 'not_yet_approved' ) ;
#209 = DIRECTION ( 'NONE',  ( -0.000000000000000000, 1.000000000000000000, -0.000000000000000000 ) ) ;
#210 = COORDINATED_UNIVERSAL_TIME_OFFSET ( 1, 0, .AHEAD. ) ;
#211 = APPROVAL_ROLE ( '' ) ;
#212 = PLANE ( 'NONE',  #54 ) ;
#213 = DIRECTION ( 'NONE',  ( -1.000000000000000000, -0.000000000000000000, -0.000000000000000000 ) ) ;
#214 = CC_DESIGN_PERSON_AND_ORGANIZATION_ASSIGNMENT ( #221, #169, ( #74 ) ) ;
#215 = LINE ( 'NONE', #46, #6 ) ;
#216 = PLANE ( 'NONE',  #34 ) ;
#217 = DIRECTION ( 'NONE',  ( -0.000000000000000000, 0.000000000000000000, 1.000000000000000000 ) ) ;
#218 = APPROVAL ( #66, 'UNSPECIFIED' ) ;
#219 = FACE_OUTER_BOUND ( 'NONE', #79, .T. ) ;
#220 = APPLICATION_CONTEXT ( 'configuration controlled 3d designs of mechanical parts and assemblies' ) ;
#221 = PERSON_AND_ORGANIZATION ( #33, #205 ) ;
#222 = ORIENTED_EDGE ( 'NONE', *, *, #112, .F. ) ;
#223 = APPROVAL_PERSON_ORGANIZATION ( #153, #218, #211 ) ;
#224 = VECTOR ( 'NONE', #92, 1000.000000000000000 ) ;
#225 = SHAPE_DEFINITION_REPRESENTATION ( #157, #165 ) ;
#226 = CARTESIAN_POINT ( 'NONE',  ( 456.9999999999998863, -374.5000000000001137, 0.4000000000000000222 ) ) ;
#227 = APPROVAL_ROLE ( '' ) ;
#228 = EDGE_CURVE ( 'NONE', #160, #51, #39, .T. ) ;
#229 = APPROVAL_DATE_TIME ( #114, #172 ) ;
#230 = LINE ( 'NONE', #60, #28 ) ;
#231 = CC_DESIGN_APPROVAL ( #13, ( #74 ) ) ;
#232 = LINE ( 'NONE', #40, #95 ) ;
#233 = EDGE_CURVE ( 'NONE', #11, #160, #70, .T. ) ;
#234 = EDGE_CURVE ( 'NONE', #83, #146, #68, .T. ) ;
#235 = CARTESIAN_POINT ( 'NONE',  ( -457.0000000000001137, 374.4999999999999432, 0.4000000000000000222 ) ) ;
#236 = CARTESIAN_POINT ( 'NONE',  ( 456.9999999999999432, -374.5000000000001137, 0.4000000000000000222 ) ) ;
#237 = ORIENTED_EDGE ( 'NONE', *, *, #144, .T. ) ;
ENDSEC;
END-ISO-10303-21;
