ISO-10303-21;
HEADER;
FILE_DESCRIPTION (( 'STEP AP203' ),
    '1' );
FILE_NAME ('12092100k.STEP',
    '2012-06-28T07:19:14',
    ( '' ),
    ( '' ),
    'SwSTEP 2.0',
    'SolidWorks 2010',
    '' );
FILE_SCHEMA (( 'CONFIG_CONTROL_DESIGN' ));
ENDSEC;

DATA;
#1 = ADVANCED_FACE ( 'NONE', ( #106 ), #7, .F. ) ;
#2 = ADVANCED_FACE ( 'NONE', ( #96 ), #12, .F. ) ;
#3 = ADVANCED_FACE ( 'NONE', ( #94 ), #23, .F. ) ;
#4 = ADVANCED_FACE ( 'NONE', ( #100 ), #27, .T. ) ;
#5 = ADVANCED_FACE ( 'NONE', ( #103 ), #31, .F. ) ;
#6 = ADVANCED_FACE ( 'NONE', ( #102 ), #35, .F. ) ;
#7 = PLANE ( 'NONE',  #216 ) ;
#8 = VERTEX_POINT ( 'NONE', #34 ) ;
#9 = CARTESIAN_POINT ( 'NONE',  ( -14.99999999999999800, -10.00000000000000000, 0.0000000000000000000 ) ) ;
#10 = CARTESIAN_POINT ( 'NONE',  ( -15.00000000000000000, 10.00000000000000400, 2.500000000000000000 ) ) ;
#11 = VERTEX_POINT ( 'NONE', #39 ) ;
#12 = PLANE ( 'NONE',  #186 ) ;
#13 = VERTEX_POINT ( 'NONE', #42 ) ;
#14 = VERTEX_POINT ( 'NONE', #38 ) ;
#15 = VERTEX_POINT ( 'NONE', #43 ) ;
#16 = VERTEX_POINT ( 'NONE', #44 ) ;
#17 = VERTEX_POINT ( 'NONE', #45 ) ;
#18 = VERTEX_POINT ( 'NONE', #46 ) ;
#19 = CARTESIAN_POINT ( 'NONE',  ( -15.00000000000000000, 10.00000000000000400, 2.500000000000000000 ) ) ;
#20 = DIRECTION ( 'NONE',  ( 1.000000000000000000, 8.673617379884034200E-017, -0.0000000000000000000 ) ) ;
#21 = DIRECTION ( 'NONE',  ( -8.673617379884034200E-017, 1.000000000000000000, 0.0000000000000000000 ) ) ;
#22 = CARTESIAN_POINT ( 'NONE',  ( -14.99999999999999800, -10.00000000000000000, 2.500000000000000000 ) ) ;
#23 = PLANE ( 'NONE',  #212 ) ;
#24 = DIRECTION ( 'NONE',  ( -0.0000000000000000000, 0.0000000000000000000, 1.000000000000000000 ) ) ;
#25 = DIRECTION ( 'NONE',  ( 1.000000000000000000, 0.0000000000000000000, 0.0000000000000000000 ) ) ;
#26 = CARTESIAN_POINT ( 'NONE',  ( 15.00000000000000000, 10.00000000000000700, 2.500000000000000000 ) ) ;
#27 = PLANE ( 'NONE',  #202 ) ;
#28 = DIRECTION ( 'NONE',  ( 1.156482317317871500E-016, -1.000000000000000000, 0.0000000000000000000 ) ) ;
#29 = DIRECTION ( 'NONE',  ( 1.000000000000000000, 1.156482317317871500E-016, 0.0000000000000000000 ) ) ;
#30 = CARTESIAN_POINT ( 'NONE',  ( -14.99999999999999800, -10.00000000000000000, 2.500000000000000000 ) ) ;
#31 = PLANE ( 'NONE',  #189 ) ;
#32 = DIRECTION ( 'NONE',  ( -0.0000000000000000000, 0.0000000000000000000, 1.000000000000000000 ) ) ;
#33 = DIRECTION ( 'NONE',  ( 1.000000000000000000, 0.0000000000000000000, 0.0000000000000000000 ) ) ;
#34 = CARTESIAN_POINT ( 'NONE',  ( 15.00000000000000900, -9.999999999999996400, 2.500000000000000000 ) ) ;
#35 = PLANE ( 'NONE',  #204 ) ;
#36 = DIRECTION ( 'NONE',  ( -1.000000000000000000, -4.336808689942016700E-016, 0.0000000000000000000 ) ) ;
#37 = DIRECTION ( 'NONE',  ( 4.336808689942016700E-016, -1.000000000000000000, 0.0000000000000000000 ) ) ;
#38 = CARTESIAN_POINT ( 'NONE',  ( 15.00000000000000000, 10.00000000000000700, 0.0000000000000000000 ) ) ;
#39 = CARTESIAN_POINT ( 'NONE',  ( 15.00000000000000900, -9.999999999999996400, 0.0000000000000000000 ) ) ;
#40 = DIRECTION ( 'NONE',  ( -1.156482317317871200E-016, 1.000000000000000000, 0.0000000000000000000 ) ) ;
#41 = DIRECTION ( 'NONE',  ( -1.000000000000000000, -1.156482317317871200E-016, 0.0000000000000000000 ) ) ;
#42 = CARTESIAN_POINT ( 'NONE',  ( -15.00000000000000000, 10.00000000000000400, 2.500000000000000000 ) ) ;
#43 = CARTESIAN_POINT ( 'NONE',  ( -15.00000000000000000, 10.00000000000000400, 0.0000000000000000000 ) ) ;
#44 = CARTESIAN_POINT ( 'NONE',  ( -14.99999999999999800, -10.00000000000000000, 0.0000000000000000000 ) ) ;
#45 = CARTESIAN_POINT ( 'NONE',  ( -14.99999999999999800, -10.00000000000000000, 2.500000000000000000 ) ) ;
#46 = CARTESIAN_POINT ( 'NONE',  ( 15.00000000000000000, 10.00000000000000700, 2.500000000000000000 ) ) ;
#47 = CARTESIAN_POINT ( 'NONE',  ( 15.00000000000000000, 10.00000000000000700, 2.500000000000000000 ) ) ;
#48 = CARTESIAN_POINT ( 'NONE',  ( -14.99999999999999800, -10.00000000000000000, 2.500000000000000000 ) ) ;
#49 = CARTESIAN_POINT ( 'NONE',  ( -15.00000000000000000, 10.00000000000000400, 0.0000000000000000000 ) ) ;
#50 = DIRECTION ( 'NONE',  ( -4.336808689942017200E-016, 1.000000000000000000, -0.0000000000000000000 ) ) ;
#51 = DIRECTION ( 'NONE',  ( -0.0000000000000000000, -0.0000000000000000000, -1.000000000000000000 ) ) ;
#52 = CARTESIAN_POINT ( 'NONE',  ( 15.00000000000000900, -9.999999999999996400, 2.500000000000000000 ) ) ;
#53 = DIRECTION ( 'NONE',  ( -1.000000000000000000, -1.156482317317871500E-016, -0.0000000000000000000 ) ) ;
#54 = CARTESIAN_POINT ( 'NONE',  ( -15.00000000000000000, 10.00000000000000400, 2.500000000000000000 ) ) ;
#55 = DIRECTION ( 'NONE',  ( -0.0000000000000000000, -0.0000000000000000000, -1.000000000000000000 ) ) ;
#56 = CARTESIAN_POINT ( 'NONE',  ( -15.00000000000000000, 10.00000000000000400, 0.0000000000000000000 ) ) ;
#57 =( LENGTH_UNIT ( ) NAMED_UNIT ( * ) SI_UNIT ( .MILLI., .METRE. ) );
#58 = DIRECTION ( 'NONE',  ( -0.0000000000000000000, -0.0000000000000000000, -1.000000000000000000 ) ) ;
#59 = DIRECTION ( 'NONE',  ( 8.673617379884034200E-017, -1.000000000000000000, 0.0000000000000000000 ) ) ;
#60 = CARTESIAN_POINT ( 'NONE',  ( 15.00000000000000000, 10.00000000000000700, 0.0000000000000000000 ) ) ;
#61 = DIRECTION ( 'NONE',  ( -4.336808689942017200E-016, 1.000000000000000000, -0.0000000000000000000 ) ) ;
#62 = CARTESIAN_POINT ( 'NONE',  ( 15.00000000000000000, 10.00000000000000700, 2.500000000000000000 ) ) ;
#63 = DIRECTION ( 'NONE',  ( -0.0000000000000000000, -0.0000000000000000000, -1.000000000000000000 ) ) ;
#64 = CARTESIAN_POINT ( 'NONE',  ( -15.00000000000000000, 10.00000000000000400, 2.500000000000000000 ) ) ;
#65 = DIRECTION ( 'NONE',  ( -1.000000000000000000, -1.156482317317871500E-016, -0.0000000000000000000 ) ) ;
#66 = CARTESIAN_POINT ( 'NONE',  ( -14.99999999999999800, -10.00000000000000000, 2.500000000000000000 ) ) ;
#67 = DIRECTION ( 'NONE',  ( 1.000000000000000000, 1.156482317317871200E-016, 0.0000000000000000000 ) ) ;
#68 = CARTESIAN_POINT ( 'NONE',  ( -15.00000000000000000, 10.00000000000000400, 2.500000000000000000 ) ) ;
#69 = DIRECTION ( 'NONE',  ( 8.673617379884034200E-017, -1.000000000000000000, 0.0000000000000000000 ) ) ;
#70 = DIRECTION ( 'NONE',  ( 0.0000000000000000000, 0.0000000000000000000, 1.000000000000000000 ) ) ;
#71 = CARTESIAN_POINT ( 'NONE',  ( -14.99999999999999800, -10.00000000000000000, 0.0000000000000000000 ) ) ;
#72 = DIRECTION ( 'NONE',  ( 1.000000000000000000, 1.156482317317871200E-016, 0.0000000000000000000 ) ) ;
#73 =( NAMED_UNIT ( * ) PLANE_ANGLE_UNIT ( ) SI_UNIT ( $, .RADIAN. ) );
#74 =( NAMED_UNIT ( * ) SI_UNIT ( $, .STERADIAN. ) SOLID_ANGLE_UNIT ( ) );
#75 = CARTESIAN_POINT ( 'NONE',  ( 0.0000000000000000000, 0.0000000000000000000, 0.0000000000000000000 ) ) ;
#76 = DIRECTION ( 'NONE',  ( 1.000000000000000000, 0.0000000000000000000, 0.0000000000000000000 ) ) ;
#77 = VECTOR ( 'NONE', #53, 1000.000000000000000 ) ;
#78 = ORIENTED_EDGE ( 'NONE', *, *, #188, .F. ) ;
#79 = ORIENTED_EDGE ( 'NONE', *, *, #209, .F. ) ;
#80 = ORIENTED_EDGE ( 'NONE', *, *, #201, .F. ) ;
#81 = VECTOR ( 'NONE', #63, 1000.000000000000000 ) ;
#82 = ORIENTED_EDGE ( 'NONE', *, *, #203, .T. ) ;
#83 = ORIENTED_EDGE ( 'NONE', *, *, #181, .T. ) ;
#84 = ORIENTED_EDGE ( 'NONE', *, *, #210, .T. ) ;
#85 = VECTOR ( 'NONE', #51, 1000.000000000000000 ) ;
#86 = LINE ( 'NONE', #54, #107 ) ;
#87 = VECTOR ( 'NONE', #50, 1000.000000000000000 ) ;
#88 = ORIENTED_EDGE ( 'NONE', *, *, #200, .F. ) ;
#89 = EDGE_LOOP ( 'NONE', ( #135, #126, #124, #95 ) ) ;
#90 = EDGE_LOOP ( 'NONE', ( #88, #78, #80, #174 ) ) ;
#91 = EDGE_LOOP ( 'NONE', ( #116, #84, #83, #115 ) ) ;
#92 = EDGE_LOOP ( 'NONE', ( #120, #104, #123, #128 ) ) ;
#93 = ORIENTED_EDGE ( 'NONE', *, *, #188, .T. ) ;
#94 = FACE_OUTER_BOUND ( 'NONE', #98, .T. ) ;
#95 = ORIENTED_EDGE ( 'NONE', *, *, #182, .T. ) ;
#96 = FACE_OUTER_BOUND ( 'NONE', #90, .T. ) ;
#97 = CLOSED_SHELL ( 'NONE', ( #1, #6, #5, #3, #4, #2 ) ) ;
#98 = EDGE_LOOP ( 'NONE', ( #93, #119, #79, #82 ) ) ;
#99 = ORIENTED_EDGE ( 'NONE', *, *, #191, .T. ) ;
#100 = FACE_OUTER_BOUND ( 'NONE', #91, .T. ) ;
#101 = LINE ( 'NONE', #47, #87 ) ;
#102 = FACE_OUTER_BOUND ( 'NONE', #89, .T. ) ;
#103 = FACE_OUTER_BOUND ( 'NONE', #92, .T. ) ;
#104 = ORIENTED_EDGE ( 'NONE', *, *, #203, .F. ) ;
#105 = EDGE_LOOP ( 'NONE', ( #134, #127, #125, #99 ) ) ;
#106 = FACE_OUTER_BOUND ( 'NONE', #105, .T. ) ;
#107 = VECTOR ( 'NONE', #58, 1000.000000000000000 ) ;
#108 = VECTOR ( 'NONE', #55, 1000.000000000000000 ) ;
#109 = LINE ( 'NONE', #56, #131 ) ;
#110 = LINE ( 'NONE', #52, #108 ) ;
#111 = LINE ( 'NONE', #48, #85 ) ;
#112 = VECTOR ( 'NONE', #61, 1000.000000000000000 ) ;
#113 = LINE ( 'NONE', #49, #77 ) ;
#114 = LINE ( 'NONE', #62, #81 ) ;
#115 = ORIENTED_EDGE ( 'NONE', *, *, #209, .T. ) ;
#116 = ORIENTED_EDGE ( 'NONE', *, *, #213, .T. ) ;
#117 = PERSON_AND_ORGANIZATION ( #217, #122 ) ;
#118 = SHAPE_DEFINITION_REPRESENTATION ( #178, #176 ) ;
#119 = ORIENTED_EDGE ( 'NONE', *, *, #191, .F. ) ;
#120 = ORIENTED_EDGE ( 'NONE', *, *, #201, .T. ) ;
#121 =( GEOMETRIC_REPRESENTATION_CONTEXT ( 3 ) GLOBAL_UNCERTAINTY_ASSIGNED_CONTEXT ( ( #177 ) ) GLOBAL_UNIT_ASSIGNED_CONTEXT ( ( #57, #73, #74 ) ) REPRESENTATION_CONTEXT ( 'NONE', 'WORKASPACE' ) );
#122 = ORGANIZATION ( 'UNSPECIFIED', 'UNSPECIFIED', '' ) ;
#123 = ORIENTED_EDGE ( 'NONE', *, *, #181, .F. ) ;
#124 = ORIENTED_EDGE ( 'NONE', *, *, #210, .F. ) ;
#125 = ORIENTED_EDGE ( 'NONE', *, *, #213, .F. ) ;
#126 = ORIENTED_EDGE ( 'NONE', *, *, #190, .F. ) ;
#127 = ORIENTED_EDGE ( 'NONE', *, *, #182, .F. ) ;
#128 = ORIENTED_EDGE ( 'NONE', *, *, #190, .T. ) ;
#129 = LINE ( 'NONE', #60, #112 ) ;
#130 = LINE ( 'NONE', #71, #172 ) ;
#131 = VECTOR ( 'NONE', #59, 1000.000000000000000 ) ;
#132 = VECTOR ( 'NONE', #67, 1000.000000000000000 ) ;
#133 = APPROVAL_PERSON_ORGANIZATION ( #136, #199, #223 ) ;
#134 = ORIENTED_EDGE ( 'NONE', *, *, #200, .T. ) ;
#135 = ORIENTED_EDGE ( 'NONE', *, *, #214, .T. ) ;
#136 = PERSON_AND_ORGANIZATION ( #217, #122 ) ;
#137 = DATE_AND_TIME ( #154, #149 ) ;
#138 = LINE ( 'NONE', #68, #140 ) ;
#139 = COORDINATED_UNIVERSAL_TIME_OFFSET ( 1, 0, .AHEAD. ) ;
#140 = VECTOR ( 'NONE', #69, 1000.000000000000000 ) ;
#141 = CALENDAR_DATE ( 2012, 28, 6 ) ;
#142 = DATE_AND_TIME ( #141, #160 ) ;
#143 = LINE ( 'NONE', #64, #170 ) ;
#144 = PERSON_AND_ORGANIZATION ( #217, #122 ) ;
#145 = LOCAL_TIME ( 9, 19, 14.00000000000000000, #168 ) ;
#146 = COORDINATED_UNIVERSAL_TIME_OFFSET ( 1, 0, .AHEAD. ) ;
#147 = APPROVAL_PERSON_ORGANIZATION ( #148, #197, #233 ) ;
#148 = PERSON_AND_ORGANIZATION ( #217, #122 ) ;
#149 = LOCAL_TIME ( 9, 19, 14.00000000000000000, #146 ) ;
#150 = DATE_AND_TIME ( #151, #158 ) ;
#151 = CALENDAR_DATE ( 2012, 28, 6 ) ;
#152 = APPROVAL_DATE_TIME ( #153, #197 ) ;
#153 = DATE_AND_TIME ( #156, #145 ) ;
#154 = CALENDAR_DATE ( 2012, 28, 6 ) ;
#155 = PERSON_AND_ORGANIZATION ( #217, #122 ) ;
#156 = CALENDAR_DATE ( 2012, 28, 6 ) ;
#157 = APPROVAL_DATE_TIME ( #150, #199 ) ;
#158 = LOCAL_TIME ( 9, 19, 14.00000000000000000, #173 ) ;
#159 = PERSON_AND_ORGANIZATION ( #217, #122 ) ;
#160 = LOCAL_TIME ( 9, 19, 14.00000000000000000, #139 ) ;
#161 = PERSON_AND_ORGANIZATION ( #217, #122 ) ;
#162 = CALENDAR_DATE ( 2012, 28, 6 ) ;
#163 = PERSON_AND_ORGANIZATION ( #217, #122 ) ;
#164 = DATE_AND_TIME ( #162, #169 ) ;
#165 = APPROVAL_PERSON_ORGANIZATION ( #144, #192, #228 ) ;
#166 = APPROVAL_DATE_TIME ( #164, #192 ) ;
#167 = COORDINATED_UNIVERSAL_TIME_OFFSET ( 1, 0, .AHEAD. ) ;
#168 = COORDINATED_UNIVERSAL_TIME_OFFSET ( 1, 0, .AHEAD. ) ;
#169 = LOCAL_TIME ( 9, 19, 14.00000000000000000, #167 ) ;
#170 = VECTOR ( 'NONE', #65, 1000.000000000000000 ) ;
#171 = LINE ( 'NONE', #66, #132 ) ;
#172 = VECTOR ( 'NONE', #72, 1000.000000000000000 ) ;
#173 = COORDINATED_UNIVERSAL_TIME_OFFSET ( 1, 0, .AHEAD. ) ;
#174 = ORIENTED_EDGE ( 'NONE', *, *, #214, .F. ) ;
#175 = MANIFOLD_SOLID_BREP ( 'Aufsatz-Linear austragen1', #97 ) ;
#176 = ADVANCED_BREP_SHAPE_REPRESENTATION ( '12092100k', ( #175, #211 ), #121 ) ;
#177 = UNCERTAINTY_MEASURE_WITH_UNIT (LENGTH_MEASURE( 1.000000000000000100E-005 ), #57, 'distance_accuracy_value', 'NONE');
#178 = PRODUCT_DEFINITION_SHAPE ( 'NONE', 'NONE',  #208 ) ;
#179 = DESIGN_CONTEXT ( 'detailed design', #222, 'design' ) ;
#180 = SECURITY_CLASSIFICATION ( '', '', #235 ) ;
#181 = EDGE_CURVE ( 'NONE', #8, #18, #101, .T. ) ;
#182 = EDGE_CURVE ( 'NONE', #17, #16, #111, .T. ) ;
#183 = CC_DESIGN_PERSON_AND_ORGANIZATION_ASSIGNMENT ( #155, #220, ( #208 ) ) ;
#184 = CC_DESIGN_SECURITY_CLASSIFICATION ( #180, ( #198 ) ) ;
#185 = CC_DESIGN_APPROVAL ( #197, ( #180 ) ) ;
#186 = AXIS2_PLACEMENT_3D ( 'NONE', #9, #24, #25 ) ;
#187 = CC_DESIGN_PERSON_AND_ORGANIZATION_ASSIGNMENT ( #117, #227, ( #218 ) ) ;
#188 = EDGE_CURVE ( 'NONE', #14, #15, #113, .T. ) ;
#189 = AXIS2_PLACEMENT_3D ( 'NONE', #26, #36, #37 ) ;
#190 = EDGE_CURVE ( 'NONE', #8, #11, #110, .T. ) ;
#191 = EDGE_CURVE ( 'NONE', #13, #15, #86, .T. ) ;
#192 = APPROVAL ( #229, 'UNSPECIFIED' ) ;
#193 = CC_DESIGN_PERSON_AND_ORGANIZATION_ASSIGNMENT ( #163, #230, ( #180 ) ) ;
#194 = CC_DESIGN_DATE_AND_TIME_ASSIGNMENT ( #137, #231, ( #180 ) ) ;
#195 = CC_DESIGN_PERSON_AND_ORGANIZATION_ASSIGNMENT ( #159, #234, ( #198 ) ) ;
#196 = CC_DESIGN_PERSON_AND_ORGANIZATION_ASSIGNMENT ( #161, #236, ( #198 ) ) ;
#197 = APPROVAL ( #232, 'UNSPECIFIED' ) ;
#198 = PRODUCT_DEFINITION_FORMATION_WITH_SPECIFIED_SOURCE ( 'ANY', '', #218, .NOT_KNOWN. ) ;
#199 = APPROVAL ( #226, 'UNSPECIFIED' ) ;
#200 = EDGE_CURVE ( 'NONE', #15, #16, #109, .T. ) ;
#201 = EDGE_CURVE ( 'NONE', #11, #14, #129, .T. ) ;
#202 = AXIS2_PLACEMENT_3D ( 'NONE', #22, #32, #33 ) ;
#203 = EDGE_CURVE ( 'NONE', #18, #14, #114, .T. ) ;
#204 = AXIS2_PLACEMENT_3D ( 'NONE', #30, #40, #41 ) ;
#205 = CC_DESIGN_APPROVAL ( #192, ( #198 ) ) ;
#206 = CC_DESIGN_DATE_AND_TIME_ASSIGNMENT ( #142, #219, ( #208 ) ) ;
#207 = PRODUCT_RELATED_PRODUCT_CATEGORY ( 'detail', '', ( #218 ) ) ;
#208 = PRODUCT_DEFINITION ( 'UNKNOWN', '', #198, #179 ) ;
#209 = EDGE_CURVE ( 'NONE', #18, #13, #143, .T. ) ;
#210 = EDGE_CURVE ( 'NONE', #17, #8, #171, .T. ) ;
#211 = AXIS2_PLACEMENT_3D ( 'NONE', #75, #70, #76 ) ;
#212 = AXIS2_PLACEMENT_3D ( 'NONE', #19, #28, #29 ) ;
#213 = EDGE_CURVE ( 'NONE', #13, #17, #138, .T. ) ;
#214 = EDGE_CURVE ( 'NONE', #16, #11, #130, .T. ) ;
#215 = CC_DESIGN_APPROVAL ( #199, ( #208 ) ) ;
#216 = AXIS2_PLACEMENT_3D ( 'NONE', #10, #20, #21 ) ;
#217 = PERSON ( 'UNSPECIFIED', 'UNSPECIFIED', 'UNSPECIFIED', ('UNSPECIFIED'), ('UNSPECIFIED'), ('UNSPECIFIED') ) ;
#218 = PRODUCT ( '12092100k', '12092100k', '', ( #237 ) ) ;
#219 = DATE_TIME_ROLE ( 'creation_date' ) ;
#220 = PERSON_AND_ORGANIZATION_ROLE ( 'creator' ) ;
#221 = APPLICATION_CONTEXT ( 'configuration controlled 3d designs of mechanical parts and assemblies' ) ;
#222 = APPLICATION_CONTEXT ( 'configuration controlled 3d designs of mechanical parts and assemblies' ) ;
#223 = APPROVAL_ROLE ( '' ) ;
#224 = APPLICATION_PROTOCOL_DEFINITION ( 'international standard', 'config_control_design', 1994, #222 ) ;
#225 = APPLICATION_PROTOCOL_DEFINITION ( 'international standard', 'config_control_design', 1994, #221 ) ;
#226 = APPROVAL_STATUS ( 'not_yet_approved' ) ;
#227 = PERSON_AND_ORGANIZATION_ROLE ( 'design_owner' ) ;
#228 = APPROVAL_ROLE ( '' ) ;
#229 = APPROVAL_STATUS ( 'not_yet_approved' ) ;
#230 = PERSON_AND_ORGANIZATION_ROLE ( 'classification_officer' ) ;
#231 = DATE_TIME_ROLE ( 'classification_date' ) ;
#232 = APPROVAL_STATUS ( 'not_yet_approved' ) ;
#233 = APPROVAL_ROLE ( '' ) ;
#234 = PERSON_AND_ORGANIZATION_ROLE ( 'creator' ) ;
#235 = SECURITY_CLASSIFICATION_LEVEL ( 'unclassified' ) ;
#236 = PERSON_AND_ORGANIZATION_ROLE ( 'design_supplier' ) ;
#237 = MECHANICAL_CONTEXT ( 'NONE', #221, 'mechanical' ) ;
ENDSEC;
END-ISO-10303-21;
