ISO-10303-21;
HEADER;
FILE_DESCRIPTION (( 'STEP AP214' ),
    '1' );
FILE_NAME ('141625100d.STEP',
    '2018-05-23T14:12:52',
    ( 'admin' ),
    ( 'Hewlett-Packard Company' ),
    'SwSTEP 2.0',
    'SolidWorks 2017',
    '' );
FILE_SCHEMA (( 'AUTOMOTIVE_DESIGN' ));
ENDSEC;

DATA;
#1 = EDGE_CURVE ( 'NONE', #94, #178, #176, .T. ) ;
#2 = SURFACE_STYLE_USAGE ( .BOTH. , #162 ) ;
#3 = CARTESIAN_POINT ( 'NONE',  ( 0.0000000000000000000, 0.0000000000000000000, 4.000000000000000000 ) ) ;
#4 = CARTESIAN_POINT ( 'NONE',  ( -7.400000000000000400, 0.0000000000000000000, 4.000000000000000000 ) ) ;
#5 = AXIS2_PLACEMENT_3D ( 'NONE', #159, #13, #140 ) ;
#6 = AXIS2_PLACEMENT_3D ( 'NONE', #61, #73, #28 ) ;
#7 = AXIS2_PLACEMENT_3D ( 'NONE', #76, #212, #120 ) ;
#8 = DIRECTION ( 'NONE',  ( -0.0000000000000000000, -0.0000000000000000000, -1.000000000000000000 ) ) ;
#9 = CARTESIAN_POINT ( 'NONE',  ( -7.500000000000000000, 0.0000000000000000000, 2.500000000000000000 ) ) ;
#10 = FILL_AREA_STYLE_COLOUR ( '', #103 ) ;
#11 = LINE ( 'NONE', #51, #110 ) ;
#12 = EDGE_CURVE ( 'NONE', #178, #91, #153, .T. ) ;
#13 = DIRECTION ( 'NONE',  ( 0.0000000000000000000, 0.0000000000000000000, 1.000000000000000000 ) ) ;
#14 = ORIENTED_EDGE ( 'NONE', *, *, #170, .F. ) ;
#15 = DIRECTION ( 'NONE',  ( 1.000000000000000000, 0.0000000000000000000, 0.0000000000000000000 ) ) ;
#16 = MECHANICAL_DESIGN_GEOMETRIC_PRESENTATION_REPRESENTATION (  '', ( #99 ), #179 ) ;
#17 = ADVANCED_FACE ( 'NONE', ( #190 ), #106, .T. ) ;
#18 = CARTESIAN_POINT ( 'NONE',  ( 0.0000000000000000000, 0.0000000000000000000, 4.000000000000000000 ) ) ;
#19 = CYLINDRICAL_SURFACE ( 'NONE', #146, 7.500000000000000000 ) ;
#20 = DIRECTION ( 'NONE',  ( -1.000000000000000000, 0.0000000000000000000, 0.0000000000000000000 ) ) ;
#21 = APPLICATION_PROTOCOL_DEFINITION ( 'draft international standard', 'automotive_design', 1998, #167 ) ;
#22 = PRODUCT ( '141625100d', '141625100d', '', ( #46 ) ) ;
#23 = CIRCLE ( 'NONE', #48, 7.400000000000000400 ) ;
#24 = PLANE ( 'NONE',  #6 ) ;
#25 = ORIENTED_EDGE ( 'NONE', *, *, #88, .F. ) ;
#26 = PRODUCT_DEFINITION ( 'UNKNOWN', '', #44, #168 ) ;
#27 = PRESENTATION_STYLE_ASSIGNMENT (( #194 ) ) ;
#28 = DIRECTION ( 'NONE',  ( 1.000000000000000000, 0.0000000000000000000, -0.0000000000000000000 ) ) ;
#29 = FACE_OUTER_BOUND ( 'NONE', #189, .T. ) ;
#30 = VERTEX_POINT ( 'NONE', #130 ) ;
#31 = APPLICATION_CONTEXT ( 'automotive_design' ) ;
#32 = SURFACE_STYLE_FILL_AREA ( #206 ) ;
#33 = FACE_OUTER_BOUND ( 'NONE', #128, .T. ) ;
#34 = DIRECTION ( 'NONE',  ( 0.0000000000000000000, 0.0000000000000000000, 1.000000000000000000 ) ) ;
#35 = DIRECTION ( 'NONE',  ( -0.0000000000000000000, -0.0000000000000000000, -1.000000000000000000 ) ) ;
#36 = DIRECTION ( 'NONE',  ( 1.000000000000000000, 0.0000000000000000000, 0.0000000000000000000 ) ) ;
#37 = EDGE_LOOP ( 'NONE', ( #158, #14, #155, #215 ) ) ;
#38 = PRODUCT_DEFINITION_SHAPE ( 'NONE', 'NONE',  #26 ) ;
#39 = ORIENTED_EDGE ( 'NONE', *, *, #121, .T. ) ;
#40 = DIRECTION ( 'NONE',  ( -0.0000000000000000000, -0.0000000000000000000, -1.000000000000000000 ) ) ;
#41 = DIRECTION ( 'NONE',  ( 1.000000000000000000, 0.0000000000000000000, 0.0000000000000000000 ) ) ;
#42 = ORIENTED_EDGE ( 'NONE', *, *, #1, .F. ) ;
#43 = DIRECTION ( 'NONE',  ( 1.000000000000000000, 0.0000000000000000000, 0.0000000000000000000 ) ) ;
#44 = PRODUCT_DEFINITION_FORMATION_WITH_SPECIFIED_SOURCE ( 'ANY', '', #22, .NOT_KNOWN. ) ;
#45 = DIRECTION ( 'NONE',  ( 0.0000000000000000000, 0.0000000000000000000, 1.000000000000000000 ) ) ;
#46 = PRODUCT_CONTEXT ( 'NONE', #31, 'mechanical' ) ;
#47 = CIRCLE ( 'NONE', #78, 7.400000000000000400 ) ;
#48 = AXIS2_PLACEMENT_3D ( 'NONE', #149, #83, #198 ) ;
#49 = AXIS2_PLACEMENT_3D ( 'NONE', #172, #142, #95 ) ;
#50 = AXIS2_PLACEMENT_3D ( 'NONE', #196, #34, #15 ) ;
#51 = CARTESIAN_POINT ( 'NONE',  ( 7.400000000000000400, 9.062386313690412400E-016, 4.000000000000000000 ) ) ;
#52 =( NAMED_UNIT ( * ) PLANE_ANGLE_UNIT ( ) SI_UNIT ( $, .RADIAN. ) );
#53 = EDGE_LOOP ( 'NONE', ( #25, #57 ) ) ;
#54 = CARTESIAN_POINT ( 'NONE',  ( 7.500000000000000000, 9.184850993605147900E-016, 2.500000000000000000 ) ) ;
#55 = FACE_BOUND ( 'NONE', #53, .T. ) ;
#56 = DIRECTION ( 'NONE',  ( -0.0000000000000000000, -0.0000000000000000000, -1.000000000000000000 ) ) ;
#57 = ORIENTED_EDGE ( 'NONE', *, *, #117, .F. ) ;
#58 = VERTEX_POINT ( 'NONE', #148 ) ;
#59 = PRODUCT_RELATED_PRODUCT_CATEGORY ( 'part', '', ( #22 ) ) ;
#60 = PLANE ( 'NONE',  #138 ) ;
#61 = CARTESIAN_POINT ( 'NONE',  ( 0.0000000000000000000, 0.0000000000000000000, 0.0000000000000000000 ) ) ;
#62 = STYLED_ITEM ( 'NONE', ( #27 ), #210 ) ;
#63 = VECTOR ( 'NONE', #35, 1000.000000000000000 ) ;
#64 = CARTESIAN_POINT ( 'NONE',  ( 0.0000000000000000000, 0.0000000000000000000, 2.500000000000000000 ) ) ;
#65 = SURFACE_SIDE_STYLE ('',( #97 ) ) ;
#66 = DIRECTION ( 'NONE',  ( 0.0000000000000000000, 0.0000000000000000000, 1.000000000000000000 ) ) ;
#67 = EDGE_CURVE ( 'NONE', #114, #58, #197, .T. ) ;
#68 = FILL_AREA_STYLE_COLOUR ( '', #81 ) ;
#69 = DIRECTION ( 'NONE',  ( 0.0000000000000000000, 0.0000000000000000000, 1.000000000000000000 ) ) ;
#70 = FACE_OUTER_BOUND ( 'NONE', #119, .T. ) ;
#71 = ADVANCED_FACE ( 'NONE', ( #33 ), #102, .T. ) ;
#72 =( NAMED_UNIT ( * ) PLANE_ANGLE_UNIT ( ) SI_UNIT ( $, .RADIAN. ) );
#73 = DIRECTION ( 'NONE',  ( 0.0000000000000000000, 0.0000000000000000000, 1.000000000000000000 ) ) ;
#74 = EDGE_LOOP ( 'NONE', ( #213, #122 ) ) ;
#75 = DIRECTION ( 'NONE',  ( 1.000000000000000000, 0.0000000000000000000, -0.0000000000000000000 ) ) ;
#76 = CARTESIAN_POINT ( 'NONE',  ( 0.0000000000000000000, 0.0000000000000000000, 4.000000000000000000 ) ) ;
#77 = DIRECTION ( 'NONE',  ( 1.000000000000000000, 0.0000000000000000000, -0.0000000000000000000 ) ) ;
#78 = AXIS2_PLACEMENT_3D ( 'NONE', #96, #66, #185 ) ;
#79 = ORIENTED_EDGE ( 'NONE', *, *, #1, .T. ) ;
#80 = ORIENTED_EDGE ( 'NONE', *, *, #204, .F. ) ;
#81 = COLOUR_RGB ( '',0.7921568627450980000, 0.8196078431372548800, 0.9333333333333333500 ) ;
#82 = AXIS2_PLACEMENT_3D ( 'NONE', #125, #45, #36 ) ;
#83 = DIRECTION ( 'NONE',  ( 0.0000000000000000000, 0.0000000000000000000, 1.000000000000000000 ) ) ;
#84 = ORIENTED_EDGE ( 'NONE', *, *, #150, .T. ) ;
#85 = UNCERTAINTY_MEASURE_WITH_UNIT (LENGTH_MEASURE( 1.000000000000000100E-005 ), #108, 'distance_accuracy_value', 'NONE');
#86 = VECTOR ( 'NONE', #209, 1000.000000000000000 ) ;
#87 = CARTESIAN_POINT ( 'NONE',  ( 0.0000000000000000000, 0.0000000000000000000, 0.0000000000000000000 ) ) ;
#88 = EDGE_CURVE ( 'NONE', #91, #30, #127, .T. ) ;
#89 = ORIENTED_EDGE ( 'NONE', *, *, #121, .F. ) ;
#90 = CIRCLE ( 'NONE', #141, 7.500000000000000000 ) ;
#91 = VERTEX_POINT ( 'NONE', #100 ) ;
#92 = CARTESIAN_POINT ( 'NONE',  ( -7.400000000000000400, 0.0000000000000000000, 4.000000000000000000 ) ) ;
#93 = LINE ( 'NONE', #9, #220 ) ;
#94 = VERTEX_POINT ( 'NONE', #116 ) ;
#95 = DIRECTION ( 'NONE',  ( -1.000000000000000000, 0.0000000000000000000, 0.0000000000000000000 ) ) ;
#96 = CARTESIAN_POINT ( 'NONE',  ( 0.0000000000000000000, 0.0000000000000000000, 4.000000000000000000 ) ) ;
#97 = SURFACE_STYLE_FILL_AREA ( #166 ) ;
#98 =( NAMED_UNIT ( * ) PLANE_ANGLE_UNIT ( ) SI_UNIT ( $, .RADIAN. ) );
#99 = STYLED_ITEM ( 'NONE', ( #184 ), #202 ) ;
#100 = CARTESIAN_POINT ( 'NONE',  ( -7.400000000000000400, 0.0000000000000000000, 2.500000000000000000 ) ) ;
#101 = DIRECTION ( 'NONE',  ( -1.000000000000000000, 0.0000000000000000000, 0.0000000000000000000 ) ) ;
#102 = CYLINDRICAL_SURFACE ( 'NONE', #157, 7.400000000000000400 ) ;
#103 = COLOUR_RGB ( '',0.7921568627450980000, 0.8196078431372548800, 0.9333333333333333500 ) ;
#104 = DIRECTION ( 'NONE',  ( 0.0000000000000000000, 0.0000000000000000000, 1.000000000000000000 ) ) ;
#105 = UNCERTAINTY_MEASURE_WITH_UNIT (LENGTH_MEASURE( 1.000000000000000100E-005 ), #177, 'distance_accuracy_value', 'NONE');
#106 = CYLINDRICAL_SURFACE ( 'NONE', #214, 7.400000000000000400 ) ;
#107 = ORIENTED_EDGE ( 'NONE', *, *, #67, .T. ) ;
#108 =( LENGTH_UNIT ( ) NAMED_UNIT ( * ) SI_UNIT ( .MILLI., .METRE. ) );
#109 = CARTESIAN_POINT ( 'NONE',  ( 7.500000000000000000, 9.184850993605147900E-016, 2.500000000000000000 ) ) ;
#110 = VECTOR ( 'NONE', #191, 1000.000000000000000 ) ;
#111 = PRESENTATION_LAYER_ASSIGNMENT (  '', '', ( #62 ) ) ;
#112 = CARTESIAN_POINT ( 'NONE',  ( 7.500000000000000000, 9.184850993605147900E-016, 0.0000000000000000000 ) ) ;
#113 = CLOSED_SHELL ( 'NONE', ( #71, #164, #171, #144, #136, #17, #135 ) ) ;
#114 = VERTEX_POINT ( 'NONE', #112 ) ;
#115 = ORIENTED_EDGE ( 'NONE', *, *, #117, .T. ) ;
#116 = CARTESIAN_POINT ( 'NONE',  ( 7.400000000000000400, 9.062386313690412400E-016, 4.000000000000000000 ) ) ;
#117 = EDGE_CURVE ( 'NONE', #30, #91, #23, .T. ) ;
#118 = AXIS2_PLACEMENT_3D ( 'NONE', #139, #192, #75 ) ;
#119 = EDGE_LOOP ( 'NONE', ( #165, #199, #39, #182 ) ) ;
#120 = DIRECTION ( 'NONE',  ( 1.000000000000000000, 0.0000000000000000000, 0.0000000000000000000 ) ) ;
#121 = EDGE_CURVE ( 'NONE', #134, #58, #93, .T. ) ;
#122 = ORIENTED_EDGE ( 'NONE', *, *, #201, .T. ) ;
#123 = CARTESIAN_POINT ( 'NONE',  ( -7.500000000000000000, 0.0000000000000000000, 2.500000000000000000 ) ) ;
#124 = FACE_OUTER_BOUND ( 'NONE', #154, .T. ) ;
#125 = CARTESIAN_POINT ( 'NONE',  ( 0.0000000000000000000, 0.0000000000000000000, 0.0000000000000000000 ) ) ;
#126 = PLANE ( 'NONE',  #118 ) ;
#127 = CIRCLE ( 'NONE', #50, 7.400000000000000400 ) ;
#128 = EDGE_LOOP ( 'NONE', ( #42, #84, #115, #163 ) ) ;
#129 = PRESENTATION_LAYER_ASSIGNMENT (  '', '', ( #99 ) ) ;
#130 = CARTESIAN_POINT ( 'NONE',  ( 7.400000000000000400, 9.062386313690412400E-016, 2.500000000000000000 ) ) ;
#131 = FACE_OUTER_BOUND ( 'NONE', #74, .T. ) ;
#132 = DIRECTION ( 'NONE',  ( -1.000000000000000000, 0.0000000000000000000, 0.0000000000000000000 ) ) ;
#133 = ORIENTED_EDGE ( 'NONE', *, *, #170, .T. ) ;
#134 = VERTEX_POINT ( 'NONE', #123 ) ;
#135 = ADVANCED_FACE ( 'NONE', ( #29 ), #60, .T. ) ;
#136 = ADVANCED_FACE ( 'NONE', ( #217 ), #24, .F. ) ;
#137 =( LENGTH_UNIT ( ) NAMED_UNIT ( * ) SI_UNIT ( .MILLI., .METRE. ) );
#138 = AXIS2_PLACEMENT_3D ( 'NONE', #208, #211, #77 ) ;
#139 = CARTESIAN_POINT ( 'NONE',  ( 0.0000000000000000000, 0.0000000000000000000, 2.500000000000000000 ) ) ;
#140 = DIRECTION ( 'NONE',  ( 1.000000000000000000, 0.0000000000000000000, 0.0000000000000000000 ) ) ;
#141 = AXIS2_PLACEMENT_3D ( 'NONE', #64, #69, #43 ) ;
#142 = DIRECTION ( 'NONE',  ( -0.0000000000000000000, -0.0000000000000000000, -1.000000000000000000 ) ) ;
#143 = CIRCLE ( 'NONE', #205, 7.500000000000000000 ) ;
#144 = ADVANCED_FACE ( 'NONE', ( #55, #131 ), #126, .T. ) ;
#145 = DIRECTION ( 'NONE',  ( 1.000000000000000000, 0.0000000000000000000, 0.0000000000000000000 ) ) ;
#146 = AXIS2_PLACEMENT_3D ( 'NONE', #147, #40, #101 ) ;
#147 = CARTESIAN_POINT ( 'NONE',  ( 0.0000000000000000000, 0.0000000000000000000, 2.500000000000000000 ) ) ;
#148 = CARTESIAN_POINT ( 'NONE',  ( -7.500000000000000000, 0.0000000000000000000, 0.0000000000000000000 ) ) ;
#149 = CARTESIAN_POINT ( 'NONE',  ( 0.0000000000000000000, 0.0000000000000000000, 2.500000000000000000 ) ) ;
#150 = EDGE_CURVE ( 'NONE', #94, #30, #11, .T. ) ;
#151 = AXIS2_PLACEMENT_3D ( 'NONE', #87, #156, #145 ) ;
#152 = APPLICATION_PROTOCOL_DEFINITION ( 'draft international standard', 'automotive_design', 1998, #31 ) ;
#153 = LINE ( 'NONE', #92, #63 ) ;
#154 = EDGE_LOOP ( 'NONE', ( #200, #161, #107, #89 ) ) ;
#155 = ORIENTED_EDGE ( 'NONE', *, *, #12, .T. ) ;
#156 = DIRECTION ( 'NONE',  ( 0.0000000000000000000, 0.0000000000000000000, 1.000000000000000000 ) ) ;
#157 = AXIS2_PLACEMENT_3D ( 'NONE', #18, #181, #132 ) ;
#158 = ORIENTED_EDGE ( 'NONE', *, *, #150, .F. ) ;
#159 = CARTESIAN_POINT ( 'NONE',  ( 0.0000000000000000000, 0.0000000000000000000, 0.0000000000000000000 ) ) ;
#160 = MECHANICAL_DESIGN_GEOMETRIC_PRESENTATION_REPRESENTATION (  '', ( #62 ), #187 ) ;
#161 = ORIENTED_EDGE ( 'NONE', *, *, #183, .T. ) ;
#162 = SURFACE_SIDE_STYLE ('',( #32 ) ) ;
#163 = ORIENTED_EDGE ( 'NONE', *, *, #12, .F. ) ;
#164 = ADVANCED_FACE ( 'NONE', ( #124 ), #207, .T. ) ;
#165 = ORIENTED_EDGE ( 'NONE', *, *, #183, .F. ) ;
#166 = FILL_AREA_STYLE ('',( #10 ) ) ;
#167 = APPLICATION_CONTEXT ( 'automotive_design' ) ;
#168 = PRODUCT_DEFINITION_CONTEXT ( 'detailed design', #167, 'design' ) ;
#169 = LINE ( 'NONE', #54, #86 ) ;
#170 = EDGE_CURVE ( 'NONE', #178, #94, #47, .T. ) ;
#171 = ADVANCED_FACE ( 'NONE', ( #70 ), #19, .T. ) ;
#172 = CARTESIAN_POINT ( 'NONE',  ( 0.0000000000000000000, 0.0000000000000000000, 2.500000000000000000 ) ) ;
#173 = UNCERTAINTY_MEASURE_WITH_UNIT (LENGTH_MEASURE( 1.000000000000000100E-005 ), #137, 'distance_accuracy_value', 'NONE');
#174 =( NAMED_UNIT ( * ) SI_UNIT ( $, .STERADIAN. ) SOLID_ANGLE_UNIT ( ) );
#175 = ORIENTED_EDGE ( 'NONE', *, *, #67, .F. ) ;
#176 = CIRCLE ( 'NONE', #7, 7.400000000000000400 ) ;
#177 =( LENGTH_UNIT ( ) NAMED_UNIT ( * ) SI_UNIT ( .MILLI., .METRE. ) );
#178 = VERTEX_POINT ( 'NONE', #4 ) ;
#179 =( GEOMETRIC_REPRESENTATION_CONTEXT ( 3 ) GLOBAL_UNCERTAINTY_ASSIGNED_CONTEXT ( ( #173 ) ) GLOBAL_UNIT_ASSIGNED_CONTEXT ( ( #137, #52, #174 ) ) REPRESENTATION_CONTEXT ( 'NONE', 'WORKASPACE' ) );
#180 = EDGE_CURVE ( 'NONE', #134, #193, #143, .T. ) ;
#181 = DIRECTION ( 'NONE',  ( -0.0000000000000000000, -0.0000000000000000000, -1.000000000000000000 ) ) ;
#182 = ORIENTED_EDGE ( 'NONE', *, *, #204, .T. ) ;
#183 = EDGE_CURVE ( 'NONE', #193, #114, #169, .T. ) ;
#184 = PRESENTATION_STYLE_ASSIGNMENT (( #2 ) ) ;
#185 = DIRECTION ( 'NONE',  ( 1.000000000000000000, 0.0000000000000000000, 0.0000000000000000000 ) ) ;
#186 =( NAMED_UNIT ( * ) SI_UNIT ( $, .STERADIAN. ) SOLID_ANGLE_UNIT ( ) );
#187 =( GEOMETRIC_REPRESENTATION_CONTEXT ( 3 ) GLOBAL_UNCERTAINTY_ASSIGNED_CONTEXT ( ( #105 ) ) GLOBAL_UNIT_ASSIGNED_CONTEXT ( ( #177, #72, #186 ) ) REPRESENTATION_CONTEXT ( 'NONE', 'WORKASPACE' ) );
#188 = EDGE_LOOP ( 'NONE', ( #80, #175 ) ) ;
#189 = EDGE_LOOP ( 'NONE', ( #133, #79 ) ) ;
#190 = FACE_OUTER_BOUND ( 'NONE', #37, .T. ) ;
#191 = DIRECTION ( 'NONE',  ( -0.0000000000000000000, -0.0000000000000000000, -1.000000000000000000 ) ) ;
#192 = DIRECTION ( 'NONE',  ( 0.0000000000000000000, 0.0000000000000000000, 1.000000000000000000 ) ) ;
#193 = VERTEX_POINT ( 'NONE', #109 ) ;
#194 = SURFACE_STYLE_USAGE ( .BOTH. , #65 ) ;
#195 = CIRCLE ( 'NONE', #82, 7.500000000000000000 ) ;
#196 = CARTESIAN_POINT ( 'NONE',  ( 0.0000000000000000000, 0.0000000000000000000, 2.500000000000000000 ) ) ;
#197 = CIRCLE ( 'NONE', #5, 7.500000000000000000 ) ;
#198 = DIRECTION ( 'NONE',  ( 1.000000000000000000, 0.0000000000000000000, 0.0000000000000000000 ) ) ;
#199 = ORIENTED_EDGE ( 'NONE', *, *, #180, .F. ) ;
#200 = ORIENTED_EDGE ( 'NONE', *, *, #201, .F. ) ;
#201 = EDGE_CURVE ( 'NONE', #193, #134, #90, .T. ) ;
#202 = MANIFOLD_SOLID_BREP ( 'Aufsatz-Linear austragen2', #113 ) ;
#203 = CARTESIAN_POINT ( 'NONE',  ( 0.0000000000000000000, 0.0000000000000000000, 2.500000000000000000 ) ) ;
#204 = EDGE_CURVE ( 'NONE', #58, #114, #195, .T. ) ;
#205 = AXIS2_PLACEMENT_3D ( 'NONE', #203, #104, #41 ) ;
#206 = FILL_AREA_STYLE ('',( #68 ) ) ;
#207 = CYLINDRICAL_SURFACE ( 'NONE', #49, 7.500000000000000000 ) ;
#208 = CARTESIAN_POINT ( 'NONE',  ( 0.0000000000000000000, 0.0000000000000000000, 4.000000000000000000 ) ) ;
#209 = DIRECTION ( 'NONE',  ( -0.0000000000000000000, -0.0000000000000000000, -1.000000000000000000 ) ) ;
#210 = ADVANCED_BREP_SHAPE_REPRESENTATION ( '141625100d', ( #202, #151 ), #219 ) ;
#211 = DIRECTION ( 'NONE',  ( 0.0000000000000000000, 0.0000000000000000000, 1.000000000000000000 ) ) ;
#212 = DIRECTION ( 'NONE',  ( 0.0000000000000000000, 0.0000000000000000000, 1.000000000000000000 ) ) ;
#213 = ORIENTED_EDGE ( 'NONE', *, *, #180, .T. ) ;
#214 = AXIS2_PLACEMENT_3D ( 'NONE', #3, #56, #20 ) ;
#215 = ORIENTED_EDGE ( 'NONE', *, *, #88, .T. ) ;
#216 = SHAPE_DEFINITION_REPRESENTATION ( #38, #210 ) ;
#217 = FACE_OUTER_BOUND ( 'NONE', #188, .T. ) ;
#218 =( NAMED_UNIT ( * ) SI_UNIT ( $, .STERADIAN. ) SOLID_ANGLE_UNIT ( ) );
#219 =( GEOMETRIC_REPRESENTATION_CONTEXT ( 3 ) GLOBAL_UNCERTAINTY_ASSIGNED_CONTEXT ( ( #85 ) ) GLOBAL_UNIT_ASSIGNED_CONTEXT ( ( #108, #98, #218 ) ) REPRESENTATION_CONTEXT ( 'NONE', 'WORKASPACE' ) );
#220 = VECTOR ( 'NONE', #8, 1000.000000000000000 ) ;
ENDSEC;
END-ISO-10303-21;
