ISO-10303-21;
HEADER;
FILE_DESCRIPTION (( 'STEP AP203' ),
    '1' );
FILE_NAME ('15424100d.STEP',
    '2023-03-14T07:43:12',
    ( '' ),
    ( '' ),
    'SwSTEP 2.0',
    'SolidWorks 2022',
    '' );
FILE_SCHEMA (( 'CONFIG_CONTROL_DESIGN' ));
ENDSEC;

DATA;
#1 = LINE ( 'NONE', #18, #131 ) ;
#2 = DIRECTION ( 'NONE',  ( -1.401796748264086693E-16, 1.000000000000000000, -0.000000000000000000 ) ) ;
#3 = PERSON_AND_ORGANIZATION ( #229, #180 ) ;
#4 = DATE_TIME_ROLE ( 'classification_date' ) ;
#5 = PRODUCT_RELATED_PRODUCT_CATEGORY ( 'detail', '', ( #113 ) ) ;
#6 = APPROVAL_PERSON_ORGANIZATION ( #133, #39, #98 ) ;
#7 = PERSON_AND_ORGANIZATION_ROLE ( 'design_owner' ) ;
#8 = ORIENTED_EDGE ( 'NONE', *, *, #27, .T. ) ;
#9 = CARTESIAN_POINT ( 'NONE',  ( -104.9999999999999432, -148.5000000000000284, 0.000000000000000000 ) ) ;
#10 = VECTOR ( 'NONE', #192, 1000.000000000000000 ) ;
#11 = VERTEX_POINT ( 'NONE', #9 ) ;
#12 = EDGE_LOOP ( 'NONE', ( #167, #147, #210, #226 ) ) ;
#13 = CARTESIAN_POINT ( 'NONE',  ( -104.9999999999999432, -148.5000000000000284, 0.2000000000000000111 ) ) ;
#14 = SHAPE_DEFINITION_REPRESENTATION ( #118, #44 ) ;
#15 = DIRECTION ( 'NONE',  ( 0.000000000000000000, -0.000000000000000000, 1.000000000000000000 ) ) ;
#16 = ADVANCED_FACE ( 'NONE', ( #148 ), #127, .F. ) ;
#17 = LINE ( 'NONE', #80, #223 ) ;
#18 = CARTESIAN_POINT ( 'NONE',  ( -104.9999999999999858, 148.4999999999999716, 0.2000000000000000111 ) ) ;
#19 = DIRECTION ( 'NONE',  ( 1.000000000000000000, 0.000000000000000000, 0.000000000000000000 ) ) ;
#20 = DATE_AND_TIME ( #54, #214 ) ;
#21 = AXIS2_PLACEMENT_3D ( 'NONE', #65, #176, #31 ) ;
#22 = MECHANICAL_CONTEXT ( 'NONE', #191, 'mechanical' ) ;
#23 = EDGE_CURVE ( 'NONE', #93, #129, #186, .T. ) ;
#24 = APPROVAL_DATE_TIME ( #104, #216 ) ;
#25 = APPROVAL_STATUS ( 'not_yet_approved' ) ;
#26 = CARTESIAN_POINT ( 'NONE',  ( 105.0000000000000568, -148.5000000000000284, 0.2000000000000000111 ) ) ;
#27 = EDGE_CURVE ( 'NONE', #72, #93, #169, .T. ) ;
#28 = ORIENTED_EDGE ( 'NONE', *, *, #86, .T. ) ;
#29 = PLANE ( 'NONE',  #21 ) ;
#30 = AXIS2_PLACEMENT_3D ( 'NONE', #78, #195, #15 ) ;
#31 = DIRECTION ( 'NONE',  ( 1.000000000000000000, 0.000000000000000000, 0.000000000000000000 ) ) ;
#32 = UNCERTAINTY_MEASURE_WITH_UNIT (LENGTH_MEASURE( 1.000000000000000082E-05 ), #85, 'distance_accuracy_value', 'NONE');
#33 = DIRECTION ( 'NONE',  ( 1.000000000000000000, 0.000000000000000000, 0.000000000000000000 ) ) ;
#34 = DIRECTION ( 'NONE',  ( 1.401796748264086693E-16, -1.000000000000000000, 0.000000000000000000 ) ) ;
#35 = DIRECTION ( 'NONE',  ( 1.401796748264086693E-16, -1.000000000000000000, 0.000000000000000000 ) ) ;
#36 = COORDINATED_UNIVERSAL_TIME_OFFSET ( 1, 0, .AHEAD. ) ;
#37 = CALENDAR_DATE ( 2023, 14, 3 ) ;
#38 = PRODUCT_DEFINITION_FORMATION_WITH_SPECIFIED_SOURCE ( 'ANY', '', #113, .NOT_KNOWN. ) ;
#39 = APPROVAL ( #217, 'UNSPECIFIED' ) ;
#40 = CARTESIAN_POINT ( 'NONE',  ( 0.000000000000000000, 0.000000000000000000, 0.000000000000000000 ) ) ;
#41 = VECTOR ( 'NONE', #99, 1000.000000000000000 ) ;
#42 = ORIENTED_EDGE ( 'NONE', *, *, #125, .T. ) ;
#43 = EDGE_LOOP ( 'NONE', ( #42, #189, #96, #151 ) ) ;
#44 = ADVANCED_BREP_SHAPE_REPRESENTATION ( '15424100d', ( #205, #208 ), #146 ) ;
#45 = ADVANCED_FACE ( 'NONE', ( #211 ), #102, .F. ) ;
#46 = LOCAL_TIME ( 8, 43, 12.00000000000000000, #202 ) ;
#47 = ORIENTED_EDGE ( 'NONE', *, *, #145, .F. ) ;
#48 = FACE_OUTER_BOUND ( 'NONE', #150, .T. ) ;
#49 = CARTESIAN_POINT ( 'NONE',  ( 105.0000000000000568, -148.5000000000000284, 0.000000000000000000 ) ) ;
#50 = CARTESIAN_POINT ( 'NONE',  ( -104.9999999999999432, -148.5000000000000284, 0.2000000000000000111 ) ) ;
#51 = CARTESIAN_POINT ( 'NONE',  ( -104.9999999999999858, 148.4999999999999716, 0.2000000000000000111 ) ) ;
#52 = APPROVAL ( #25, 'UNSPECIFIED' ) ;
#53 = PERSON_AND_ORGANIZATION ( #229, #180 ) ;
#54 = CALENDAR_DATE ( 2023, 14, 3 ) ;
#55 = DATE_AND_TIME ( #143, #201 ) ;
#56 = AXIS2_PLACEMENT_3D ( 'NONE', #190, #142, #100 ) ;
#57 = ORIENTED_EDGE ( 'NONE', *, *, #235, .F. ) ;
#58 = CARTESIAN_POINT ( 'NONE',  ( 105.0000000000000142, 148.4999999999999716, 0.2000000000000000111 ) ) ;
#59 = ORIENTED_EDGE ( 'NONE', *, *, #125, .F. ) ;
#60 = VERTEX_POINT ( 'NONE', #154 ) ;
#61 = VERTEX_POINT ( 'NONE', #175 ) ;
#62 = DIRECTION ( 'NONE',  ( -1.000000000000000000, -0.000000000000000000, -0.000000000000000000 ) ) ;
#63 = CARTESIAN_POINT ( 'NONE',  ( -104.9999999999999858, 148.4999999999999716, 0.2000000000000000111 ) ) ;
#64 = APPROVAL_PERSON_ORGANIZATION ( #107, #52, #222 ) ;
#65 = CARTESIAN_POINT ( 'NONE',  ( 105.0000000000000568, -148.5000000000000284, 0.000000000000000000 ) ) ;
#66 = DIRECTION ( 'NONE',  ( 1.000000000000000000, 0.000000000000000000, 0.000000000000000000 ) ) ;
#67 = CC_DESIGN_PERSON_AND_ORGANIZATION_ASSIGNMENT ( #144, #179, ( #160 ) ) ;
#68 = CARTESIAN_POINT ( 'NONE',  ( -104.9999999999999432, -148.5000000000000284, 0.000000000000000000 ) ) ;
#69 = PERSON_AND_ORGANIZATION_ROLE ( 'classification_officer' ) ;
#70 = VECTOR ( 'NONE', #19, 1000.000000000000000 ) ;
#71 = DATE_AND_TIME ( #164, #46 ) ;
#72 = VERTEX_POINT ( 'NONE', #50 ) ;
#73 = CC_DESIGN_APPROVAL ( #216, ( #160 ) ) ;
#74 = ADVANCED_FACE ( 'NONE', ( #48 ), #29, .F. ) ;
#75 = ORIENTED_EDGE ( 'NONE', *, *, #225, .T. ) ;
#76 = VERTEX_POINT ( 'NONE', #119 ) ;
#77 = CARTESIAN_POINT ( 'NONE',  ( 105.0000000000000568, -148.5000000000000284, 0.2000000000000000111 ) ) ;
#78 = CARTESIAN_POINT ( 'NONE',  ( -104.9999999999999432, -148.5000000000000284, 0.2000000000000000111 ) ) ;
#79 = CALENDAR_DATE ( 2023, 14, 3 ) ;
#80 = CARTESIAN_POINT ( 'NONE',  ( 105.0000000000000142, 148.4999999999999716, 0.2000000000000000111 ) ) ;
#81 = VECTOR ( 'NONE', #152, 1000.000000000000000 ) ;
#82 = CC_DESIGN_PERSON_AND_ORGANIZATION_ASSIGNMENT ( #3, #69, ( #220 ) ) ;
#83 = DIRECTION ( 'NONE',  ( -0.000000000000000000, 0.000000000000000000, 1.000000000000000000 ) ) ;
#84 = FACE_OUTER_BOUND ( 'NONE', #12, .T. ) ;
#85 =( LENGTH_UNIT ( ) NAMED_UNIT ( * ) SI_UNIT ( .MILLI., .METRE. ) );
#86 = EDGE_CURVE ( 'NONE', #61, #172, #158, .T. ) ;
#87 = VECTOR ( 'NONE', #33, 1000.000000000000000 ) ;
#88 =( NAMED_UNIT ( * ) PLANE_ANGLE_UNIT ( ) SI_UNIT ( $, .RADIAN. ) );
#89 = PERSON_AND_ORGANIZATION_ROLE ( 'design_supplier' ) ;
#90 = COORDINATED_UNIVERSAL_TIME_OFFSET ( 1, 0, .AHEAD. ) ;
#91 = COORDINATED_UNIVERSAL_TIME_OFFSET ( 1, 0, .AHEAD. ) ;
#92 = EDGE_CURVE ( 'NONE', #60, #11, #218, .T. ) ;
#93 = VERTEX_POINT ( 'NONE', #77 ) ;
#94 = DIRECTION ( 'NONE',  ( -0.000000000000000000, -0.000000000000000000, -1.000000000000000000 ) ) ;
#95 = CC_DESIGN_APPROVAL ( #52, ( #38 ) ) ;
#96 = ORIENTED_EDGE ( 'NONE', *, *, #86, .F. ) ;
#97 = CARTESIAN_POINT ( 'NONE',  ( -104.9999999999999432, -148.5000000000000284, 0.2000000000000000111 ) ) ;
#98 = APPROVAL_ROLE ( '' ) ;
#99 = DIRECTION ( 'NONE',  ( -1.000000000000000000, -0.000000000000000000, -0.000000000000000000 ) ) ;
#100 = DIRECTION ( 'NONE',  ( 0.000000000000000000, -0.000000000000000000, -1.000000000000000000 ) ) ;
#101 = EDGE_CURVE ( 'NONE', #72, #11, #114, .T. ) ;
#102 = PLANE ( 'NONE',  #56 ) ;
#103 = FACE_OUTER_BOUND ( 'NONE', #228, .T. ) ;
#104 = DATE_AND_TIME ( #37, #227 ) ;
#105 = VECTOR ( 'NONE', #94, 1000.000000000000000 ) ;
#106 =( NAMED_UNIT ( * ) SI_UNIT ( $, .STERADIAN. ) SOLID_ANGLE_UNIT ( ) );
#107 = PERSON_AND_ORGANIZATION ( #229, #180 ) ;
#108 = ORIENTED_EDGE ( 'NONE', *, *, #23, .T. ) ;
#109 = ORIENTED_EDGE ( 'NONE', *, *, #27, .F. ) ;
#110 = ORIENTED_EDGE ( 'NONE', *, *, #145, .T. ) ;
#111 = CC_DESIGN_DATE_AND_TIME_ASSIGNMENT ( #71, #4, ( #220 ) ) ;
#112 = DIRECTION ( 'NONE',  ( -1.401796748264086939E-16, 1.000000000000000000, 0.000000000000000000 ) ) ;
#113 = PRODUCT ( '15424100d', '15424100d', '', ( #22 ) ) ;
#114 = LINE ( 'NONE', #97, #10 ) ;
#115 = VECTOR ( 'NONE', #35, 1000.000000000000000 ) ;
#116 = CARTESIAN_POINT ( 'NONE',  ( 105.0000000000000568, -148.5000000000000284, 0.2000000000000000111 ) ) ;
#117 = CARTESIAN_POINT ( 'NONE',  ( -104.9999999999999858, 148.4999999999999716, 0.2000000000000000111 ) ) ;
#118 = PRODUCT_DEFINITION_SHAPE ( 'NONE', 'NONE',  #160 ) ;
#119 = CARTESIAN_POINT ( 'NONE',  ( 105.0000000000000142, 148.4999999999999716, 0.000000000000000000 ) ) ;
#120 = APPROVAL_PERSON_ORGANIZATION ( #121, #216, #122 ) ;
#121 = PERSON_AND_ORGANIZATION ( #229, #180 ) ;
#122 = APPROVAL_ROLE ( '' ) ;
#123 = PERSON_AND_ORGANIZATION ( #229, #180 ) ;
#124 = DIRECTION ( 'NONE',  ( 1.000000000000000000, 0.000000000000000000, 0.000000000000000000 ) ) ;
#125 = EDGE_CURVE ( 'NONE', #76, #60, #178, .T. ) ;
#126 = EDGE_CURVE ( 'NONE', #172, #72, #1, .T. ) ;
#127 = PLANE ( 'NONE',  #177 ) ;
#128 = DIRECTION ( 'NONE',  ( -1.000000000000000000, -1.401796748264086939E-16, 0.000000000000000000 ) ) ;
#129 = VERTEX_POINT ( 'NONE', #49 ) ;
#130 = ORIENTED_EDGE ( 'NONE', *, *, #126, .T. ) ;
#131 = VECTOR ( 'NONE', #34, 1000.000000000000000 ) ;
#132 = CC_DESIGN_APPROVAL ( #39, ( #220 ) ) ;
#133 = PERSON_AND_ORGANIZATION ( #229, #180 ) ;
#134 = CC_DESIGN_PERSON_AND_ORGANIZATION_ASSIGNMENT ( #181, #89, ( #38 ) ) ;
#135 = ORIENTED_EDGE ( 'NONE', *, *, #231, .T. ) ;
#136 = DIRECTION ( 'NONE',  ( -0.000000000000000000, -0.000000000000000000, -1.000000000000000000 ) ) ;
#137 = ADVANCED_FACE ( 'NONE', ( #197 ), #141, .T. ) ;
#138 = LINE ( 'NONE', #212, #230 ) ;
#139 = VECTOR ( 'NONE', #136, 1000.000000000000000 ) ;
#140 = CARTESIAN_POINT ( 'NONE',  ( -104.9999999999999858, 148.4999999999999716, 0.2000000000000000111 ) ) ;
#141 = PLANE ( 'NONE',  #193 ) ;
#142 = DIRECTION ( 'NONE',  ( 0.000000000000000000, -1.000000000000000000, 0.000000000000000000 ) ) ;
#143 = CALENDAR_DATE ( 2023, 14, 3 ) ;
#144 = PERSON_AND_ORGANIZATION ( #229, #180 ) ;
#145 = EDGE_CURVE ( 'NONE', #129, #76, #174, .T. ) ;
#146 =( GEOMETRIC_REPRESENTATION_CONTEXT ( 3 ) GLOBAL_UNCERTAINTY_ASSIGNED_CONTEXT ( ( #32 ) ) GLOBAL_UNIT_ASSIGNED_CONTEXT ( ( #85, #88, #106 ) ) REPRESENTATION_CONTEXT ( 'NONE', 'WORKASPACE' ) );
#147 = ORIENTED_EDGE ( 'NONE', *, *, #101, .F. ) ;
#148 = FACE_OUTER_BOUND ( 'NONE', #209, .T. ) ;
#149 = ORIENTED_EDGE ( 'NONE', *, *, #231, .F. ) ;
#150 = EDGE_LOOP ( 'NONE', ( #47, #149, #184, #59 ) ) ;
#151 = ORIENTED_EDGE ( 'NONE', *, *, #235, .T. ) ;
#152 = DIRECTION ( 'NONE',  ( -1.401796748264086693E-16, 1.000000000000000000, -0.000000000000000000 ) ) ;
#153 = CC_DESIGN_PERSON_AND_ORGANIZATION_ASSIGNMENT ( #53, #7, ( #113 ) ) ;
#154 = CARTESIAN_POINT ( 'NONE',  ( -104.9999999999999858, 148.4999999999999716, 0.000000000000000000 ) ) ;
#155 = COORDINATED_UNIVERSAL_TIME_OFFSET ( 1, 0, .AHEAD. ) ;
#156 = CARTESIAN_POINT ( 'NONE',  ( -104.9999999999999858, 148.4999999999999716, 0.000000000000000000 ) ) ;
#157 = CLOSED_SHELL ( 'NONE', ( #16, #45, #199, #187, #137, #74 ) ) ;
#158 = LINE ( 'NONE', #51, #204 ) ;
#159 = CARTESIAN_POINT ( 'NONE',  ( -104.9999999999999858, 148.4999999999999716, 0.000000000000000000 ) ) ;
#160 = PRODUCT_DEFINITION ( 'UNKNOWN', '', #38, #166 ) ;
#161 = DATE_TIME_ROLE ( 'creation_date' ) ;
#162 = CC_DESIGN_PERSON_AND_ORGANIZATION_ASSIGNMENT ( #123, #200, ( #38 ) ) ;
#163 = SECURITY_CLASSIFICATION_LEVEL ( 'unclassified' ) ;
#164 = CALENDAR_DATE ( 2023, 14, 3 ) ;
#165 = DIRECTION ( 'NONE',  ( 0.000000000000000000, 0.000000000000000000, 1.000000000000000000 ) ) ;
#166 = DESIGN_CONTEXT ( 'detailed design', #213, 'design' ) ;
#167 = ORIENTED_EDGE ( 'NONE', *, *, #92, .T. ) ;
#168 = ORIENTED_EDGE ( 'NONE', *, *, #225, .F. ) ;
#169 = LINE ( 'NONE', #13, #70 ) ;
#170 = CC_DESIGN_DATE_AND_TIME_ASSIGNMENT ( #20, #161, ( #160 ) ) ;
#171 = ORIENTED_EDGE ( 'NONE', *, *, #23, .F. ) ;
#172 = VERTEX_POINT ( 'NONE', #117 ) ;
#173 = PLANE ( 'NONE',  #30 ) ;
#174 = LINE ( 'NONE', #219, #81 ) ;
#175 = CARTESIAN_POINT ( 'NONE',  ( 105.0000000000000142, 148.4999999999999716, 0.2000000000000000111 ) ) ;
#176 = DIRECTION ( 'NONE',  ( -0.000000000000000000, 0.000000000000000000, 1.000000000000000000 ) ) ;
#177 = AXIS2_PLACEMENT_3D ( 'NONE', #58, #128, #206 ) ;
#178 = LINE ( 'NONE', #159, #41 ) ;
#179 = PERSON_AND_ORGANIZATION_ROLE ( 'creator' ) ;
#180 = ORGANIZATION ( 'UNSPECIFIED', 'UNSPECIFIED', '' ) ;
#181 = PERSON_AND_ORGANIZATION ( #229, #180 ) ;
#182 = APPLICATION_PROTOCOL_DEFINITION ( 'international standard', 'config_control_design', 1994, #191 ) ;
#183 = CC_DESIGN_SECURITY_CLASSIFICATION ( #220, ( #38 ) ) ;
#184 = ORIENTED_EDGE ( 'NONE', *, *, #92, .F. ) ;
#185 = ORIENTED_EDGE ( 'NONE', *, *, #101, .T. ) ;
#186 = LINE ( 'NONE', #26, #105 ) ;
#187 = ADVANCED_FACE ( 'NONE', ( #103 ), #173, .F. ) ;
#188 = AXIS2_PLACEMENT_3D ( 'NONE', #63, #232, #112 ) ;
#189 = ORIENTED_EDGE ( 'NONE', *, *, #203, .F. ) ;
#190 = CARTESIAN_POINT ( 'NONE',  ( -104.9999999999999858, 148.4999999999999716, 0.2000000000000000111 ) ) ;
#191 = APPLICATION_CONTEXT ( 'configuration controlled 3d designs of mechanical parts and assemblies' ) ;
#192 = DIRECTION ( 'NONE',  ( -0.000000000000000000, -0.000000000000000000, -1.000000000000000000 ) ) ;
#193 = AXIS2_PLACEMENT_3D ( 'NONE', #116, #83, #66 ) ;
#194 = LINE ( 'NONE', #68, #87 ) ;
#195 = DIRECTION ( 'NONE',  ( 0.000000000000000000, 1.000000000000000000, 0.000000000000000000 ) ) ;
#196 = APPROVAL_DATE_TIME ( #234, #39 ) ;
#197 = FACE_OUTER_BOUND ( 'NONE', #207, .T. ) ;
#198 = APPROVAL_STATUS ( 'not_yet_approved' ) ;
#199 = ADVANCED_FACE ( 'NONE', ( #84 ), #233, .F. ) ;
#200 = PERSON_AND_ORGANIZATION_ROLE ( 'creator' ) ;
#201 = LOCAL_TIME ( 8, 43, 12.00000000000000000, #91 ) ;
#202 = COORDINATED_UNIVERSAL_TIME_OFFSET ( 1, 0, .AHEAD. ) ;
#203 = EDGE_CURVE ( 'NONE', #172, #60, #236, .T. ) ;
#204 = VECTOR ( 'NONE', #62, 1000.000000000000000 ) ;
#205 = MANIFOLD_SOLID_BREP ( 'Aufsatz-Linear austragen1', #157 ) ;
#206 = DIRECTION ( 'NONE',  ( 1.401796748264086939E-16, -1.000000000000000000, 0.000000000000000000 ) ) ;
#207 = EDGE_LOOP ( 'NONE', ( #75, #28, #130, #8 ) ) ;
#208 = AXIS2_PLACEMENT_3D ( 'NONE', #40, #165, #124 ) ;
#209 = EDGE_LOOP ( 'NONE', ( #110, #57, #168, #108 ) ) ;
#210 = ORIENTED_EDGE ( 'NONE', *, *, #126, .F. ) ;
#211 = FACE_OUTER_BOUND ( 'NONE', #43, .T. ) ;
#212 = CARTESIAN_POINT ( 'NONE',  ( 105.0000000000000142, 148.4999999999999716, 0.2000000000000000111 ) ) ;
#213 = APPLICATION_CONTEXT ( 'configuration controlled 3d designs of mechanical parts and assemblies' ) ;
#214 = LOCAL_TIME ( 8, 43, 12.00000000000000000, #90 ) ;
#215 = DIRECTION ( 'NONE',  ( -0.000000000000000000, -0.000000000000000000, -1.000000000000000000 ) ) ;
#216 = APPROVAL ( #198, 'UNSPECIFIED' ) ;
#217 = APPROVAL_STATUS ( 'not_yet_approved' ) ;
#218 = LINE ( 'NONE', #156, #115 ) ;
#219 = CARTESIAN_POINT ( 'NONE',  ( 105.0000000000000142, 148.4999999999999716, 0.000000000000000000 ) ) ;
#220 = SECURITY_CLASSIFICATION ( '', '', #163 ) ;
#221 = APPROVAL_DATE_TIME ( #55, #52 ) ;
#222 = APPROVAL_ROLE ( '' ) ;
#223 = VECTOR ( 'NONE', #215, 1000.000000000000000 ) ;
#224 = APPLICATION_PROTOCOL_DEFINITION ( 'international standard', 'config_control_design', 1994, #213 ) ;
#225 = EDGE_CURVE ( 'NONE', #93, #61, #138, .T. ) ;
#226 = ORIENTED_EDGE ( 'NONE', *, *, #203, .T. ) ;
#227 = LOCAL_TIME ( 8, 43, 12.00000000000000000, #36 ) ;
#228 = EDGE_LOOP ( 'NONE', ( #135, #171, #109, #185 ) ) ;
#229 = PERSON ( 'UNSPECIFIED', 'UNSPECIFIED', 'UNSPECIFIED', ('UNSPECIFIED'), ('UNSPECIFIED'), ('UNSPECIFIED') ) ;
#230 = VECTOR ( 'NONE', #2, 1000.000000000000000 ) ;
#231 = EDGE_CURVE ( 'NONE', #11, #129, #194, .T. ) ;
#232 = DIRECTION ( 'NONE',  ( 1.000000000000000000, 1.401796748264086939E-16, -0.000000000000000000 ) ) ;
#233 = PLANE ( 'NONE',  #188 ) ;
#234 = DATE_AND_TIME ( #79, #237 ) ;
#235 = EDGE_CURVE ( 'NONE', #61, #76, #17, .T. ) ;
#236 = LINE ( 'NONE', #140, #139 ) ;
#237 = LOCAL_TIME ( 8, 43, 12.00000000000000000, #155 ) ;
ENDSEC;
END-ISO-10303-21;
