ISO-10303-21;
HEADER;
FILE_DESCRIPTION (( 'STEP AP203' ),
    '1' );
FILE_NAME ('19074500d.STEP',
    '2023-10-10T07:28:44',
    ( '' ),
    ( '' ),
    'SwSTEP 2.0',
    'SolidWorks 2022',
    '' );
FILE_SCHEMA (( 'CONFIG_CONTROL_DESIGN' ));
ENDSEC;

DATA;
#1 = EDGE_LOOP ( 'NONE', ( #129, #151, #132, #90 ) ) ;
#2 = EDGE_LOOP ( 'NONE', ( #92, #162, #70, #18 ) ) ;
#3 = DIRECTION ( 'NONE',  ( 1.000000000000000000, 0.000000000000000000, 0.000000000000000000 ) ) ;
#4 = VECTOR ( 'NONE', #202, 1000.000000000000000 ) ;
#5 = LINE ( 'NONE', #42, #48 ) ;
#6 = LINE ( 'NONE', #95, #123 ) ;
#7 = LOCAL_TIME ( 9, 28, 44.00000000000000000, #27 ) ;
#8 = DIRECTION ( 'NONE',  ( -1.000000000000000000, -1.577021341797097807E-16, -0.000000000000000000 ) ) ;
#9 = DATE_AND_TIME ( #141, #59 ) ;
#10 = PERSON_AND_ORGANIZATION_ROLE ( 'design_owner' ) ;
#11 = APPROVAL_DATE_TIME ( #178, #28 ) ;
#12 = ADVANCED_FACE ( 'NONE', ( #225 ), #207, .F. ) ;
#13 = DATE_AND_TIME ( #200, #168 ) ;
#14 = CARTESIAN_POINT ( 'NONE',  ( -5.500000000000000000, -5.500000000000000000, 2.500000000000000000 ) ) ;
#15 = VECTOR ( 'NONE', #193, 1000.000000000000000 ) ;
#16 = EDGE_CURVE ( 'NONE', #204, #34, #134, .T. ) ;
#17 = CC_DESIGN_PERSON_AND_ORGANIZATION_ASSIGNMENT ( #62, #46, ( #31 ) ) ;
#18 = ORIENTED_EDGE ( 'NONE', *, *, #111, .T. ) ;
#19 = ORIENTED_EDGE ( 'NONE', *, *, #163, .T. ) ;
#20 = LINE ( 'NONE', #58, #88 ) ;
#21 = ORIENTED_EDGE ( 'NONE', *, *, #43, .T. ) ;
#22 = FACE_OUTER_BOUND ( 'NONE', #1, .T. ) ;
#23 = DIRECTION ( 'NONE',  ( -1.000000000000000000, -6.308085367188390241E-16, 0.000000000000000000 ) ) ;
#24 = APPROVAL ( #198, 'UNSPECIFIED' ) ;
#25 = CARTESIAN_POINT ( 'NONE',  ( -5.500000000000000000, 5.500000000000000000, 0.000000000000000000 ) ) ;
#26 = DATE_TIME_ROLE ( 'classification_date' ) ;
#27 = COORDINATED_UNIVERSAL_TIME_OFFSET ( 1, 0, .AHEAD. ) ;
#28 = APPROVAL ( #64, 'UNSPECIFIED' ) ;
#29 = VECTOR ( 'NONE', #76, 1000.000000000000000 ) ;
#30 = PERSON_AND_ORGANIZATION_ROLE ( 'creator' ) ;
#31 = SECURITY_CLASSIFICATION ( '', '', #175 ) ;
#32 =( LENGTH_UNIT ( ) NAMED_UNIT ( * ) SI_UNIT ( .MILLI., .METRE. ) );
#33 = FACE_OUTER_BOUND ( 'NONE', #2, .T. ) ;
#34 = VERTEX_POINT ( 'NONE', #93 ) ;
#35 = ORIENTED_EDGE ( 'NONE', *, *, #53, .F. ) ;
#36 = AXIS2_PLACEMENT_3D ( 'NONE', #67, #128, #217 ) ;
#37 = LOCAL_TIME ( 9, 28, 44.00000000000000000, #47 ) ;
#38 = EDGE_LOOP ( 'NONE', ( #75, #218, #135, #51 ) ) ;
#39 = CARTESIAN_POINT ( 'NONE',  ( 5.499999999999998224, 5.500000000000001776, 2.500000000000000000 ) ) ;
#40 = CC_DESIGN_APPROVAL ( #28, ( #68 ) ) ;
#41 = CARTESIAN_POINT ( 'NONE',  ( -5.500000000000000000, 5.500000000000000000, 2.500000000000000000 ) ) ;
#42 = CARTESIAN_POINT ( 'NONE',  ( -5.500000000000000000, 5.500000000000000000, 2.500000000000000000 ) ) ;
#43 = EDGE_CURVE ( 'NONE', #191, #87, #117, .T. ) ;
#44 = CARTESIAN_POINT ( 'NONE',  ( 5.499999999999998224, 5.500000000000001776, 2.500000000000000000 ) ) ;
#45 = LINE ( 'NONE', #211, #147 ) ;
#46 = PERSON_AND_ORGANIZATION_ROLE ( 'classification_officer' ) ;
#47 = COORDINATED_UNIVERSAL_TIME_OFFSET ( 1, 0, .AHEAD. ) ;
#48 = VECTOR ( 'NONE', #192, 1000.000000000000000 ) ;
#49 = CARTESIAN_POINT ( 'NONE',  ( 5.499999999999998224, 5.500000000000001776, 2.500000000000000000 ) ) ;
#50 =( NAMED_UNIT ( * ) PLANE_ANGLE_UNIT ( ) SI_UNIT ( $, .RADIAN. ) );
#51 = ORIENTED_EDGE ( 'NONE', *, *, #98, .T. ) ;
#52 = ADVANCED_FACE ( 'NONE', ( #226 ), #171, .F. ) ;
#53 = EDGE_CURVE ( 'NONE', #184, #191, #20, .T. ) ;
#54 = ORIENTED_EDGE ( 'NONE', *, *, #72, .F. ) ;
#55 = DIRECTION ( 'NONE',  ( 1.000000000000000000, 0.000000000000000000, -0.000000000000000000 ) ) ;
#56 = AXIS2_PLACEMENT_3D ( 'NONE', #44, #23, #153 ) ;
#57 = ORIENTED_EDGE ( 'NONE', *, *, #131, .F. ) ;
#58 = CARTESIAN_POINT ( 'NONE',  ( 5.499999999999998224, 5.500000000000001776, 2.500000000000000000 ) ) ;
#59 = LOCAL_TIME ( 9, 28, 44.00000000000000000, #231 ) ;
#60 = CARTESIAN_POINT ( 'NONE',  ( -5.500000000000000000, -5.500000000000000000, 0.000000000000000000 ) ) ;
#61 = FACE_OUTER_BOUND ( 'NONE', #105, .T. ) ;
#62 = PERSON_AND_ORGANIZATION ( #187, #110 ) ;
#63 = CC_DESIGN_PERSON_AND_ORGANIZATION_ASSIGNMENT ( #234, #30, ( #136 ) ) ;
#64 = APPROVAL_STATUS ( 'not_yet_approved' ) ;
#65 = PERSON_AND_ORGANIZATION_ROLE ( 'creator' ) ;
#66 = CALENDAR_DATE ( 2023, 10, 10 ) ;
#67 = CARTESIAN_POINT ( 'NONE',  ( -5.500000000000000000, -5.500000000000000000, 2.500000000000000000 ) ) ;
#68 = PRODUCT_DEFINITION ( 'UNKNOWN', '', #136, #223 ) ;
#69 = CARTESIAN_POINT ( 'NONE',  ( 5.500000000000005329, -5.499999999999998224, 2.500000000000000000 ) ) ;
#70 = ORIENTED_EDGE ( 'NONE', *, *, #53, .T. ) ;
#71 = APPROVAL_DATE_TIME ( #167, #24 ) ;
#72 = EDGE_CURVE ( 'NONE', #204, #116, #5, .T. ) ;
#73 = ORIENTED_EDGE ( 'NONE', *, *, #111, .F. ) ;
#74 = DIRECTION ( 'NONE',  ( -0.000000000000000000, 0.000000000000000000, -1.000000000000000000 ) ) ;
#75 = ORIENTED_EDGE ( 'NONE', *, *, #131, .T. ) ;
#76 = DIRECTION ( 'NONE',  ( -0.000000000000000000, -0.000000000000000000, -1.000000000000000000 ) ) ;
#77 = ADVANCED_FACE ( 'NONE', ( #22 ), #221, .F. ) ;
#78 = AXIS2_PLACEMENT_3D ( 'NONE', #190, #172, #3 ) ;
#79 = DIRECTION ( 'NONE',  ( 1.000000000000000000, 1.577021341797097807E-16, 0.000000000000000000 ) ) ;
#80 = LINE ( 'NONE', #230, #165 ) ;
#81 = DIRECTION ( 'NONE',  ( -6.308085367188390241E-16, 1.000000000000000000, -0.000000000000000000 ) ) ;
#82 = COORDINATED_UNIVERSAL_TIME_OFFSET ( 1, 0, .AHEAD. ) ;
#83 = PERSON_AND_ORGANIZATION ( #187, #110 ) ;
#84 = DATE_AND_TIME ( #66, #37 ) ;
#85 = CARTESIAN_POINT ( 'NONE',  ( -5.500000000000000000, -5.500000000000000000, 2.500000000000000000 ) ) ;
#86 = FACE_OUTER_BOUND ( 'NONE', #38, .T. ) ;
#87 = VERTEX_POINT ( 'NONE', #150 ) ;
#88 = VECTOR ( 'NONE', #137, 1000.000000000000000 ) ;
#89 = LOCAL_TIME ( 9, 28, 44.00000000000000000, #82 ) ;
#90 = ORIENTED_EDGE ( 'NONE', *, *, #72, .T. ) ;
#91 = CC_DESIGN_PERSON_AND_ORGANIZATION_ASSIGNMENT ( #212, #155, ( #136 ) ) ;
#92 = ORIENTED_EDGE ( 'NONE', *, *, #16, .T. ) ;
#93 = CARTESIAN_POINT ( 'NONE',  ( -5.500000000000000000, -5.500000000000000000, 2.500000000000000000 ) ) ;
#94 = CARTESIAN_POINT ( 'NONE',  ( -5.500000000000000000, 5.500000000000000000, 2.500000000000000000 ) ) ;
#95 = CARTESIAN_POINT ( 'NONE',  ( 5.499999999999998224, 5.500000000000001776, 0.000000000000000000 ) ) ;
#96 = DIRECTION ( 'NONE',  ( -0.000000000000000000, -0.000000000000000000, -1.000000000000000000 ) ) ;
#97 = APPROVAL_ROLE ( '' ) ;
#98 = EDGE_CURVE ( 'NONE', #34, #182, #45, .T. ) ;
#99 = CALENDAR_DATE ( 2023, 10, 10 ) ;
#100 =( GEOMETRIC_REPRESENTATION_CONTEXT ( 3 ) GLOBAL_UNCERTAINTY_ASSIGNED_CONTEXT ( ( #195 ) ) GLOBAL_UNIT_ASSIGNED_CONTEXT ( ( #32, #50, #181 ) ) REPRESENTATION_CONTEXT ( 'NONE', 'WORKASPACE' ) );
#101 = DATE_TIME_ROLE ( 'creation_date' ) ;
#102 = EDGE_CURVE ( 'NONE', #220, #87, #6, .T. ) ;
#103 = APPLICATION_CONTEXT ( 'configuration controlled 3d designs of mechanical parts and assemblies' ) ;
#104 = PLANE ( 'NONE',  #36 ) ;
#105 = EDGE_LOOP ( 'NONE', ( #115, #170, #35, #236 ) ) ;
#106 = ORIENTED_EDGE ( 'NONE', *, *, #157, .F. ) ;
#107 = CC_DESIGN_PERSON_AND_ORGANIZATION_ASSIGNMENT ( #83, #65, ( #68 ) ) ;
#108 = AXIS2_PLACEMENT_3D ( 'NONE', #85, #215, #161 ) ;
#109 = ADVANCED_BREP_SHAPE_REPRESENTATION ( '19074500d', ( #130, #237 ), #100 ) ;
#110 = ORGANIZATION ( 'UNSPECIFIED', 'UNSPECIFIED', '' ) ;
#111 = EDGE_CURVE ( 'NONE', #191, #204, #80, .T. ) ;
#112 = EDGE_CURVE ( 'NONE', #184, #220, #120, .T. ) ;
#113 = EDGE_LOOP ( 'NONE', ( #106, #149, #189, #57 ) ) ;
#114 = DIRECTION ( 'NONE',  ( 0.000000000000000000, -1.000000000000000000, 0.000000000000000000 ) ) ;
#115 = ORIENTED_EDGE ( 'NONE', *, *, #102, .T. ) ;
#116 = VERTEX_POINT ( 'NONE', #154 ) ;
#117 = LINE ( 'NONE', #39, #29 ) ;
#118 = CARTESIAN_POINT ( 'NONE',  ( 5.500000000000005329, -5.499999999999998224, 2.500000000000000000 ) ) ;
#119 = LINE ( 'NONE', #25, #216 ) ;
#120 = LINE ( 'NONE', #118, #177 ) ;
#121 = PERSON_AND_ORGANIZATION ( #187, #110 ) ;
#122 = PERSON_AND_ORGANIZATION ( #187, #110 ) ;
#123 = VECTOR ( 'NONE', #81, 1000.000000000000000 ) ;
#124 = PRODUCT_RELATED_PRODUCT_CATEGORY ( 'detail', '', ( #228 ) ) ;
#125 = PERSON_AND_ORGANIZATION ( #187, #110 ) ;
#126 = PLANE ( 'NONE',  #108 ) ;
#127 = CC_DESIGN_SECURITY_CLASSIFICATION ( #31, ( #136 ) ) ;
#128 = DIRECTION ( 'NONE',  ( -1.577021341797096821E-16, 1.000000000000000000, 0.000000000000000000 ) ) ;
#129 = ORIENTED_EDGE ( 'NONE', *, *, #157, .T. ) ;
#130 = MANIFOLD_SOLID_BREP ( 'Aufsatz-Linear austragen1', #185 ) ;
#131 = EDGE_CURVE ( 'NONE', #182, #220, #194, .T. ) ;
#132 = ORIENTED_EDGE ( 'NONE', *, *, #16, .F. ) ;
#133 = AXIS2_PLACEMENT_3D ( 'NONE', #41, #152, #79 ) ;
#134 = LINE ( 'NONE', #208, #224 ) ;
#135 = ORIENTED_EDGE ( 'NONE', *, *, #203, .F. ) ;
#136 = PRODUCT_DEFINITION_FORMATION_WITH_SPECIFIED_SOURCE ( 'ANY', '', #228, .NOT_KNOWN. ) ;
#137 = DIRECTION ( 'NONE',  ( -6.308085367188390241E-16, 1.000000000000000000, -0.000000000000000000 ) ) ;
#138 = DIRECTION ( 'NONE',  ( 0.000000000000000000, -1.000000000000000000, 0.000000000000000000 ) ) ;
#139 = DIRECTION ( 'NONE',  ( 1.000000000000000000, 0.000000000000000000, 0.000000000000000000 ) ) ;
#140 = PLANE ( 'NONE',  #56 ) ;
#141 = CALENDAR_DATE ( 2023, 10, 10 ) ;
#142 = APPROVAL_DATE_TIME ( #13, #222 ) ;
#143 = AXIS2_PLACEMENT_3D ( 'NONE', #94, #55, #74 ) ;
#144 = CARTESIAN_POINT ( 'NONE',  ( -5.500000000000000000, 5.500000000000000000, 2.500000000000000000 ) ) ;
#145 = APPROVAL_PERSON_ORGANIZATION ( #122, #28, #233 ) ;
#146 = LINE ( 'NONE', #14, #4 ) ;
#147 = VECTOR ( 'NONE', #96, 1000.000000000000000 ) ;
#148 = ADVANCED_FACE ( 'NONE', ( #61 ), #140, .F. ) ;
#149 = ORIENTED_EDGE ( 'NONE', *, *, #163, .F. ) ;
#150 = CARTESIAN_POINT ( 'NONE',  ( 5.499999999999998224, 5.500000000000001776, 0.000000000000000000 ) ) ;
#151 = ORIENTED_EDGE ( 'NONE', *, *, #98, .F. ) ;
#152 = DIRECTION ( 'NONE',  ( 1.577021341797097807E-16, -1.000000000000000000, 0.000000000000000000 ) ) ;
#153 = DIRECTION ( 'NONE',  ( 6.308085367188390241E-16, -1.000000000000000000, 0.000000000000000000 ) ) ;
#154 = CARTESIAN_POINT ( 'NONE',  ( -5.500000000000000000, 5.500000000000000000, 0.000000000000000000 ) ) ;
#155 = PERSON_AND_ORGANIZATION_ROLE ( 'design_supplier' ) ;
#156 = PRODUCT_DEFINITION_SHAPE ( 'NONE', 'NONE',  #68 ) ;
#157 = EDGE_CURVE ( 'NONE', #116, #182, #209, .T. ) ;
#158 = APPLICATION_PROTOCOL_DEFINITION ( 'international standard', 'config_control_design', 1994, #103 ) ;
#159 = APPROVAL_STATUS ( 'not_yet_approved' ) ;
#160 = CARTESIAN_POINT ( 'NONE',  ( 5.500000000000005329, -5.499999999999998224, 0.000000000000000000 ) ) ;
#161 = DIRECTION ( 'NONE',  ( 1.000000000000000000, 0.000000000000000000, 0.000000000000000000 ) ) ;
#162 = ORIENTED_EDGE ( 'NONE', *, *, #203, .T. ) ;
#163 = EDGE_CURVE ( 'NONE', #87, #116, #119, .T. ) ;
#164 = CALENDAR_DATE ( 2023, 10, 10 ) ;
#165 = VECTOR ( 'NONE', #173, 1000.000000000000000 ) ;
#166 = CC_DESIGN_DATE_AND_TIME_ASSIGNMENT ( #9, #26, ( #31 ) ) ;
#167 = DATE_AND_TIME ( #164, #89 ) ;
#168 = LOCAL_TIME ( 9, 28, 44.00000000000000000, #180 ) ;
#169 = EDGE_LOOP ( 'NONE', ( #19, #54, #73, #21 ) ) ;
#170 = ORIENTED_EDGE ( 'NONE', *, *, #43, .F. ) ;
#171 = PLANE ( 'NONE',  #78 ) ;
#172 = DIRECTION ( 'NONE',  ( -0.000000000000000000, 0.000000000000000000, 1.000000000000000000 ) ) ;
#173 = DIRECTION ( 'NONE',  ( -1.000000000000000000, -1.577021341797097807E-16, -0.000000000000000000 ) ) ;
#174 = DIRECTION ( 'NONE',  ( -0.000000000000000000, -0.000000000000000000, -1.000000000000000000 ) ) ;
#175 = SECURITY_CLASSIFICATION_LEVEL ( 'unclassified' ) ;
#176 = PERSON_AND_ORGANIZATION ( #187, #110 ) ;
#177 = VECTOR ( 'NONE', #174, 1000.000000000000000 ) ;
#178 = DATE_AND_TIME ( #99, #7 ) ;
#179 = APPROVAL_PERSON_ORGANIZATION ( #125, #222, #214 ) ;
#180 = COORDINATED_UNIVERSAL_TIME_OFFSET ( 1, 0, .AHEAD. ) ;
#181 =( NAMED_UNIT ( * ) SI_UNIT ( $, .STERADIAN. ) SOLID_ANGLE_UNIT ( ) );
#182 = VERTEX_POINT ( 'NONE', #235 ) ;
#183 = ADVANCED_FACE ( 'NONE', ( #33 ), #126, .T. ) ;
#184 = VERTEX_POINT ( 'NONE', #69 ) ;
#185 = CLOSED_SHELL ( 'NONE', ( #77, #219, #148, #12, #183, #52 ) ) ;
#186 = SHAPE_DEFINITION_REPRESENTATION ( #156, #109 ) ;
#187 = PERSON ( 'UNSPECIFIED', 'UNSPECIFIED', 'UNSPECIFIED', ('UNSPECIFIED'), ('UNSPECIFIED'), ('UNSPECIFIED') ) ;
#188 = APPLICATION_CONTEXT ( 'configuration controlled 3d designs of mechanical parts and assemblies' ) ;
#189 = ORIENTED_EDGE ( 'NONE', *, *, #102, .F. ) ;
#190 = CARTESIAN_POINT ( 'NONE',  ( -5.500000000000000000, -5.500000000000000000, 0.000000000000000000 ) ) ;
#191 = VERTEX_POINT ( 'NONE', #49 ) ;
#192 = DIRECTION ( 'NONE',  ( -0.000000000000000000, -0.000000000000000000, -1.000000000000000000 ) ) ;
#193 = DIRECTION ( 'NONE',  ( 1.000000000000000000, 1.577021341797096821E-16, 0.000000000000000000 ) ) ;
#194 = LINE ( 'NONE', #60, #15 ) ;
#195 = UNCERTAINTY_MEASURE_WITH_UNIT (LENGTH_MEASURE( 1.000000000000000082E-05 ), #32, 'distance_accuracy_value', 'NONE');
#196 = CC_DESIGN_PERSON_AND_ORGANIZATION_ASSIGNMENT ( #176, #10, ( #228 ) ) ;
#197 = MECHANICAL_CONTEXT ( 'NONE', #103, 'mechanical' ) ;
#198 = APPROVAL_STATUS ( 'not_yet_approved' ) ;
#199 = VECTOR ( 'NONE', #138, 1000.000000000000000 ) ;
#200 = CALENDAR_DATE ( 2023, 10, 10 ) ;
#201 = APPROVAL_PERSON_ORGANIZATION ( #121, #24, #97 ) ;
#202 = DIRECTION ( 'NONE',  ( 1.000000000000000000, 1.577021341797096821E-16, 0.000000000000000000 ) ) ;
#203 = EDGE_CURVE ( 'NONE', #34, #184, #146, .T. ) ;
#204 = VERTEX_POINT ( 'NONE', #144 ) ;
#205 = CC_DESIGN_DATE_AND_TIME_ASSIGNMENT ( #84, #101, ( #68 ) ) ;
#206 = CC_DESIGN_APPROVAL ( #222, ( #136 ) ) ;
#207 = PLANE ( 'NONE',  #133 ) ;
#208 = CARTESIAN_POINT ( 'NONE',  ( -5.500000000000000000, 5.500000000000000000, 2.500000000000000000 ) ) ;
#209 = LINE ( 'NONE', #229, #199 ) ;
#210 = CARTESIAN_POINT ( 'NONE',  ( 0.000000000000000000, 0.000000000000000000, 0.000000000000000000 ) ) ;
#211 = CARTESIAN_POINT ( 'NONE',  ( -5.500000000000000000, -5.500000000000000000, 2.500000000000000000 ) ) ;
#212 = PERSON_AND_ORGANIZATION ( #187, #110 ) ;
#213 = DIRECTION ( 'NONE',  ( 0.000000000000000000, 0.000000000000000000, 1.000000000000000000 ) ) ;
#214 = APPROVAL_ROLE ( '' ) ;
#215 = DIRECTION ( 'NONE',  ( -0.000000000000000000, 0.000000000000000000, 1.000000000000000000 ) ) ;
#216 = VECTOR ( 'NONE', #8, 1000.000000000000000 ) ;
#217 = DIRECTION ( 'NONE',  ( -1.000000000000000000, -1.577021341797096821E-16, 0.000000000000000000 ) ) ;
#218 = ORIENTED_EDGE ( 'NONE', *, *, #112, .F. ) ;
#219 = ADVANCED_FACE ( 'NONE', ( #86 ), #104, .F. ) ;
#220 = VERTEX_POINT ( 'NONE', #160 ) ;
#221 = PLANE ( 'NONE',  #143 ) ;
#222 = APPROVAL ( #159, 'UNSPECIFIED' ) ;
#223 = DESIGN_CONTEXT ( 'detailed design', #188, 'design' ) ;
#224 = VECTOR ( 'NONE', #114, 1000.000000000000000 ) ;
#225 = FACE_OUTER_BOUND ( 'NONE', #169, .T. ) ;
#226 = FACE_OUTER_BOUND ( 'NONE', #113, .T. ) ;
#227 = CC_DESIGN_APPROVAL ( #24, ( #31 ) ) ;
#228 = PRODUCT ( '19074500d', '19074500d', '', ( #197 ) ) ;
#229 = CARTESIAN_POINT ( 'NONE',  ( -5.500000000000000000, 5.500000000000000000, 0.000000000000000000 ) ) ;
#230 = CARTESIAN_POINT ( 'NONE',  ( -5.500000000000000000, 5.500000000000000000, 2.500000000000000000 ) ) ;
#231 = COORDINATED_UNIVERSAL_TIME_OFFSET ( 1, 0, .AHEAD. ) ;
#232 = APPLICATION_PROTOCOL_DEFINITION ( 'international standard', 'config_control_design', 1994, #188 ) ;
#233 = APPROVAL_ROLE ( '' ) ;
#234 = PERSON_AND_ORGANIZATION ( #187, #110 ) ;
#235 = CARTESIAN_POINT ( 'NONE',  ( -5.500000000000000000, -5.500000000000000000, 0.000000000000000000 ) ) ;
#236 = ORIENTED_EDGE ( 'NONE', *, *, #112, .T. ) ;
#237 = AXIS2_PLACEMENT_3D ( 'NONE', #210, #213, #139 ) ;
ENDSEC;
END-ISO-10303-21;
