ISO-10303-21;
HEADER;
FILE_DESCRIPTION (( 'STEP AP203' ),
    '1' );
FILE_NAME ('21264500.STEP',
    '2021-09-10T09:27:46',
    ( '' ),
    ( '' ),
    'SwSTEP 2.0',
    'SolidWorks 2021',
    '' );
FILE_SCHEMA (( 'CONFIG_CONTROL_DESIGN' ));
ENDSEC;

DATA;
#1 = LINE ( 'NONE', #56, #134 ) ;
#2 = VECTOR ( 'NONE', #95, 1000.000000000000000 ) ;
#3 = VERTEX_POINT ( 'NONE', #181 ) ;
#4 =( NAMED_UNIT ( * ) PLANE_ANGLE_UNIT ( ) SI_UNIT ( $, .RADIAN. ) );
#5 = DATE_TIME_ROLE ( 'classification_date' ) ;
#6 = CARTESIAN_POINT ( 'NONE',  ( -20.75000000000000355, 9.250000000000000000, 7.000000000000000000 ) ) ;
#7 = CARTESIAN_POINT ( 'NONE',  ( 0.000000000000000000, 0.000000000000000000, 7.000000000000000000 ) ) ;
#8 = DIRECTION ( 'NONE',  ( 0.000000000000000000, -0.000000000000000000, 1.000000000000000000 ) ) ;
#9 = DATE_AND_TIME ( #78, #173 ) ;
#10 = VECTOR ( 'NONE', #177, 1000.000000000000000 ) ;
#11 = PERSON_AND_ORGANIZATION ( #107, #38 ) ;
#12 = CC_DESIGN_APPROVAL ( #57, ( #128 ) ) ;
#13 = ORIENTED_EDGE ( 'NONE', *, *, #76, .F. ) ;
#14 = APPLICATION_PROTOCOL_DEFINITION ( 'international standard', 'config_control_design', 1994, #30 ) ;
#15 = PLANE ( 'NONE',  #90 ) ;
#16 = CC_DESIGN_PERSON_AND_ORGANIZATION_ASSIGNMENT ( #11, #40, ( #101 ) ) ;
#17 = EDGE_CURVE ( 'NONE', #102, #235, #204, .T. ) ;
#18 = LINE ( 'NONE', #158, #121 ) ;
#19 = AXIS2_PLACEMENT_3D ( 'NONE', #6, #202, #96 ) ;
#20 = DIRECTION ( 'NONE',  ( -0.000000000000000000, -0.000000000000000000, -1.000000000000000000 ) ) ;
#21 = CARTESIAN_POINT ( 'NONE',  ( 20.74999999999999289, -9.250000000000000000, 0.000000000000000000 ) ) ;
#22 = APPROVAL_ROLE ( '' ) ;
#23 = CARTESIAN_POINT ( 'NONE',  ( -20.74999999999999645, -9.250000000000000000, 0.000000000000000000 ) ) ;
#24 = PRODUCT_DEFINITION_SHAPE ( 'NONE', 'NONE',  #128 ) ;
#25 = ADVANCED_FACE ( 'NONE', ( #129 ), #41, .F. ) ;
#26 = APPROVAL_DATE_TIME ( #212, #34 ) ;
#27 = COORDINATED_UNIVERSAL_TIME_OFFSET ( 1, 0, .AHEAD. ) ;
#28 = VERTEX_POINT ( 'NONE', #116 ) ;
#29 = ORIENTED_EDGE ( 'NONE', *, *, #76, .T. ) ;
#30 = APPLICATION_CONTEXT ( 'configuration controlled 3d designs of mechanical parts and assemblies' ) ;
#31 = ORIENTED_EDGE ( 'NONE', *, *, #86, .T. ) ;
#32 = MECHANICAL_CONTEXT ( 'NONE', #30, 'mechanical' ) ;
#33 = ORIENTED_EDGE ( 'NONE', *, *, #222, .T. ) ;
#34 = APPROVAL ( #119, 'UNSPECIFIED' ) ;
#35 = ADVANCED_FACE ( 'NONE', ( #230 ), #120, .F. ) ;
#36 = CARTESIAN_POINT ( 'NONE',  ( 20.74999999999999645, 9.250000000000000000, 7.000000000000000000 ) ) ;
#37 = CARTESIAN_POINT ( 'NONE',  ( -20.74999999999999645, -9.250000000000000000, 7.000000000000000000 ) ) ;
#38 = ORGANIZATION ( 'UNSPECIFIED', 'UNSPECIFIED', '' ) ;
#39 = LINE ( 'NONE', #62, #170 ) ;
#40 = PERSON_AND_ORGANIZATION_ROLE ( 'design_supplier' ) ;
#41 = PLANE ( 'NONE',  #19 ) ;
#42 = APPROVAL_PERSON_ORGANIZATION ( #138, #34, #22 ) ;
#43 = PLANE ( 'NONE',  #68 ) ;
#44 = PERSON_AND_ORGANIZATION ( #107, #38 ) ;
#45 = ORIENTED_EDGE ( 'NONE', *, *, #66, .T. ) ;
#46 = SECURITY_CLASSIFICATION_LEVEL ( 'unclassified' ) ;
#47 = VECTOR ( 'NONE', #200, 1000.000000000000000 ) ;
#48 = ORIENTED_EDGE ( 'NONE', *, *, #193, .F. ) ;
#49 = ORIENTED_EDGE ( 'NONE', *, *, #135, .T. ) ;
#50 = DIRECTION ( 'NONE',  ( 1.000000000000000000, 0.000000000000000000, 0.000000000000000000 ) ) ;
#51 = ORIENTED_EDGE ( 'NONE', *, *, #110, .T. ) ;
#52 = DIRECTION ( 'NONE',  ( 3.750753461571474945E-16, -1.000000000000000000, 0.000000000000000000 ) ) ;
#53 = APPROVAL_PERSON_ORGANIZATION ( #150, #182, #162 ) ;
#54 = DIRECTION ( 'NONE',  ( -0.000000000000000000, 0.000000000000000000, 1.000000000000000000 ) ) ;
#55 = DIRECTION ( 'NONE',  ( 0.000000000000000000, 1.000000000000000000, 0.000000000000000000 ) ) ;
#56 = CARTESIAN_POINT ( 'NONE',  ( -20.75000000000000355, 9.250000000000000000, 0.000000000000000000 ) ) ;
#57 = APPROVAL ( #87, 'UNSPECIFIED' ) ;
#58 = CARTESIAN_POINT ( 'NONE',  ( -20.75000000000000355, 9.250000000000000000, 7.000000000000000000 ) ) ;
#59 = EDGE_CURVE ( 'NONE', #172, #3, #163, .T. ) ;
#60 = VERTEX_POINT ( 'NONE', #80 ) ;
#61 = VECTOR ( 'NONE', #52, 1000.000000000000000 ) ;
#62 = CARTESIAN_POINT ( 'NONE',  ( 20.74999999999999645, 9.250000000000000000, 0.000000000000000000 ) ) ;
#63 = COORDINATED_UNIVERSAL_TIME_OFFSET ( 1, 0, .AHEAD. ) ;
#64 = ORIENTED_EDGE ( 'NONE', *, *, #184, .F. ) ;
#65 = ORIENTED_EDGE ( 'NONE', *, *, #59, .F. ) ;
#66 = EDGE_CURVE ( 'NONE', #172, #102, #151, .T. ) ;
#67 = DIRECTION ( 'NONE',  ( 0.000000000000000000, 0.000000000000000000, 1.000000000000000000 ) ) ;
#68 = AXIS2_PLACEMENT_3D ( 'NONE', #7, #208, #152 ) ;
#69 = CARTESIAN_POINT ( 'NONE',  ( -20.75000000000000355, 9.250000000000000000, 7.000000000000000000 ) ) ;
#70 = LOCAL_TIME ( 11, 27, 46.00000000000000000, #27 ) ;
#71 = AXIS2_PLACEMENT_3D ( 'NONE', #127, #161, #223 ) ;
#72 = LINE ( 'NONE', #126, #61 ) ;
#73 = PLANE ( 'NONE',  #71 ) ;
#74 = APPROVAL_ROLE ( '' ) ;
#75 = CC_DESIGN_DATE_AND_TIME_ASSIGNMENT ( #210, #155, ( #128 ) ) ;
#76 = EDGE_CURVE ( 'NONE', #28, #172, #225, .T. ) ;
#77 = CARTESIAN_POINT ( 'NONE',  ( -20.74999999999999645, -9.250000000000000000, 7.000000000000000000 ) ) ;
#78 = CALENDAR_DATE ( 2021, 10, 9 ) ;
#79 = EDGE_LOOP ( 'NONE', ( #49, #65, #13, #141 ) ) ;
#80 = CARTESIAN_POINT ( 'NONE',  ( -20.75000000000000355, 9.250000000000000000, 0.000000000000000000 ) ) ;
#81 = VECTOR ( 'NONE', #108, 1000.000000000000000 ) ;
#82 = CALENDAR_DATE ( 2021, 10, 9 ) ;
#83 = CC_DESIGN_SECURITY_CLASSIFICATION ( #146, ( #101 ) ) ;
#84 = LOCAL_TIME ( 11, 27, 46.00000000000000000, #63 ) ;
#85 = EDGE_LOOP ( 'NONE', ( #51, #64, #122, #106 ) ) ;
#86 = EDGE_CURVE ( 'NONE', #3, #235, #189, .T. ) ;
#87 = APPROVAL_STATUS ( 'not_yet_approved' ) ;
#88 = LINE ( 'NONE', #145, #217 ) ;
#89 = DIRECTION ( 'NONE',  ( -1.000000000000000000, -0.000000000000000000, -0.000000000000000000 ) ) ;
#90 = AXIS2_PLACEMENT_3D ( 'NONE', #109, #54, #159 ) ;
#91 = ORIENTED_EDGE ( 'NONE', *, *, #66, .F. ) ;
#92 =( LENGTH_UNIT ( ) NAMED_UNIT ( * ) SI_UNIT ( .MILLI., .METRE. ) );
#93 = EDGE_LOOP ( 'NONE', ( #31, #194, #91, #197 ) ) ;
#94 = PERSON_AND_ORGANIZATION ( #107, #38 ) ;
#95 = DIRECTION ( 'NONE',  ( 1.000000000000000000, 0.000000000000000000, 0.000000000000000000 ) ) ;
#96 = DIRECTION ( 'NONE',  ( 0.000000000000000000, -0.000000000000000000, -1.000000000000000000 ) ) ;
#97 = PERSON_AND_ORGANIZATION_ROLE ( 'creator' ) ;
#98 = MANIFOLD_SOLID_BREP ( 'Aufsatz-Linear austragen1', #125 ) ;
#99 = CC_DESIGN_PERSON_AND_ORGANIZATION_ASSIGNMENT ( #44, #97, ( #101 ) ) ;
#100 = ADVANCED_FACE ( 'NONE', ( #166 ), #43, .T. ) ;
#101 = PRODUCT_DEFINITION_FORMATION_WITH_SPECIFIED_SOURCE ( 'ANY', '', #226, .NOT_KNOWN. ) ;
#102 = VERTEX_POINT ( 'NONE', #118 ) ;
#103 = APPROVAL_PERSON_ORGANIZATION ( #105, #57, #74 ) ;
#104 = VERTEX_POINT ( 'NONE', #187 ) ;
#105 = PERSON_AND_ORGANIZATION ( #107, #38 ) ;
#106 = ORIENTED_EDGE ( 'NONE', *, *, #17, .T. ) ;
#107 = PERSON ( 'UNSPECIFIED', 'UNSPECIFIED', 'UNSPECIFIED', ('UNSPECIFIED'), ('UNSPECIFIED'), ('UNSPECIFIED') ) ;
#108 = DIRECTION ( 'NONE',  ( 1.875376730785737473E-16, 1.000000000000000000, -0.000000000000000000 ) ) ;
#109 = CARTESIAN_POINT ( 'NONE',  ( 0.000000000000000000, 0.000000000000000000, 0.000000000000000000 ) ) ;
#110 = EDGE_CURVE ( 'NONE', #235, #218, #39, .T. ) ;
#111 = VECTOR ( 'NONE', #186, 1000.000000000000000 ) ;
#112 = DIRECTION ( 'NONE',  ( 1.875376730785737473E-16, 1.000000000000000000, -0.000000000000000000 ) ) ;
#113 = CC_DESIGN_PERSON_AND_ORGANIZATION_ASSIGNMENT ( #216, #196, ( #226 ) ) ;
#114 = COORDINATED_UNIVERSAL_TIME_OFFSET ( 1, 0, .AHEAD. ) ;
#115 = CC_DESIGN_APPROVAL ( #182, ( #101 ) ) ;
#116 = CARTESIAN_POINT ( 'NONE',  ( -20.75000000000000355, 9.250000000000000000, 7.000000000000000000 ) ) ;
#117 = CALENDAR_DATE ( 2021, 10, 9 ) ;
#118 = CARTESIAN_POINT ( 'NONE',  ( 20.74999999999999289, -9.250000000000000000, 7.000000000000000000 ) ) ;
#119 = APPROVAL_STATUS ( 'not_yet_approved' ) ;
#120 = PLANE ( 'NONE',  #154 ) ;
#121 = VECTOR ( 'NONE', #89, 1000.000000000000000 ) ;
#122 = ORIENTED_EDGE ( 'NONE', *, *, #175, .F. ) ;
#123 = LINE ( 'NONE', #36, #10 ) ;
#124 = ADVANCED_FACE ( 'NONE', ( #179 ), #15, .F. ) ;
#125 = CLOSED_SHELL ( 'NONE', ( #234, #25, #144, #35, #100, #124 ) ) ;
#126 = CARTESIAN_POINT ( 'NONE',  ( -20.75000000000000355, 9.250000000000000000, 0.000000000000000000 ) ) ;
#127 = CARTESIAN_POINT ( 'NONE',  ( 20.74999999999999645, 9.250000000000000000, 7.000000000000000000 ) ) ;
#128 = PRODUCT_DEFINITION ( 'UNKNOWN', '', #101, #183 ) ;
#129 = FACE_OUTER_BOUND ( 'NONE', #140, .T. ) ;
#130 = DIRECTION ( 'NONE',  ( -1.000000000000000000, -0.000000000000000000, -0.000000000000000000 ) ) ;
#131 = ORIENTED_EDGE ( 'NONE', *, *, #86, .F. ) ;
#132 = SHAPE_DEFINITION_REPRESENTATION ( #24, #192 ) ;
#133 = DIRECTION ( 'NONE',  ( 1.000000000000000000, 0.000000000000000000, 0.000000000000000000 ) ) ;
#134 = VECTOR ( 'NONE', #130, 1000.000000000000000 ) ;
#135 = EDGE_CURVE ( 'NONE', #60, #3, #72, .T. ) ;
#136 = APPROVAL_DATE_TIME ( #9, #57 ) ;
#137 = EDGE_LOOP ( 'NONE', ( #214, #131, #191, #215 ) ) ;
#138 = PERSON_AND_ORGANIZATION ( #107, #38 ) ;
#139 = ORIENTED_EDGE ( 'NONE', *, *, #175, .T. ) ;
#140 = EDGE_LOOP ( 'NONE', ( #33, #168, #48, #228 ) ) ;
#141 = ORIENTED_EDGE ( 'NONE', *, *, #156, .T. ) ;
#142 = DIRECTION ( 'NONE',  ( -0.000000000000000000, -0.000000000000000000, -1.000000000000000000 ) ) ;
#143 = CC_DESIGN_PERSON_AND_ORGANIZATION_ASSIGNMENT ( #165, #167, ( #146 ) ) ;
#144 = ADVANCED_FACE ( 'NONE', ( #176 ), #221, .F. ) ;
#145 = CARTESIAN_POINT ( 'NONE',  ( -20.75000000000000355, 9.250000000000000000, 7.000000000000000000 ) ) ;
#146 = SECURITY_CLASSIFICATION ( '', '', #46 ) ;
#147 = DIRECTION ( 'NONE',  ( -3.750753461571474945E-16, 1.000000000000000000, 0.000000000000000000 ) ) ;
#148 = UNCERTAINTY_MEASURE_WITH_UNIT (LENGTH_MEASURE( 1.000000000000000082E-05 ), #92, 'distance_accuracy_value', 'NONE');
#149 = CARTESIAN_POINT ( 'NONE',  ( 20.74999999999999289, -9.250000000000000000, 7.000000000000000000 ) ) ;
#150 = PERSON_AND_ORGANIZATION ( #107, #38 ) ;
#151 = LINE ( 'NONE', #211, #178 ) ;
#152 = DIRECTION ( 'NONE',  ( 1.000000000000000000, 0.000000000000000000, 0.000000000000000000 ) ) ;
#153 = DATE_AND_TIME ( #117, #185 ) ;
#154 = AXIS2_PLACEMENT_3D ( 'NONE', #224, #55, #8 ) ;
#155 = DATE_TIME_ROLE ( 'creation_date' ) ;
#156 = EDGE_CURVE ( 'NONE', #28, #60, #88, .T. ) ;
#157 = PRODUCT_RELATED_PRODUCT_CATEGORY ( 'detail', '', ( #226 ) ) ;
#158 = CARTESIAN_POINT ( 'NONE',  ( -20.75000000000000355, 9.250000000000000000, 7.000000000000000000 ) ) ;
#159 = DIRECTION ( 'NONE',  ( 1.000000000000000000, 0.000000000000000000, 0.000000000000000000 ) ) ;
#160 = VECTOR ( 'NONE', #20, 1000.000000000000000 ) ;
#161 = DIRECTION ( 'NONE',  ( -1.000000000000000000, 1.875376730785737473E-16, 0.000000000000000000 ) ) ;
#162 = APPROVAL_ROLE ( '' ) ;
#163 = LINE ( 'NONE', #77, #160 ) ;
#164 =( NAMED_UNIT ( * ) SI_UNIT ( $, .STERADIAN. ) SOLID_ANGLE_UNIT ( ) );
#165 = PERSON_AND_ORGANIZATION ( #107, #38 ) ;
#166 = FACE_OUTER_BOUND ( 'NONE', #195, .T. ) ;
#167 = PERSON_AND_ORGANIZATION_ROLE ( 'classification_officer' ) ;
#168 = ORIENTED_EDGE ( 'NONE', *, *, #156, .F. ) ;
#169 = COORDINATED_UNIVERSAL_TIME_OFFSET ( 1, 0, .AHEAD. ) ;
#170 = VECTOR ( 'NONE', #112, 1000.000000000000000 ) ;
#171 = CALENDAR_DATE ( 2021, 10, 9 ) ;
#172 = VERTEX_POINT ( 'NONE', #37 ) ;
#173 = LOCAL_TIME ( 11, 27, 46.00000000000000000, #114 ) ;
#174 = AXIS2_PLACEMENT_3D ( 'NONE', #69, #219, #147 ) ;
#175 = EDGE_CURVE ( 'NONE', #102, #104, #199, .T. ) ;
#176 = FACE_OUTER_BOUND ( 'NONE', #79, .T. ) ;
#177 = DIRECTION ( 'NONE',  ( -0.000000000000000000, -0.000000000000000000, -1.000000000000000000 ) ) ;
#178 = VECTOR ( 'NONE', #133, 1000.000000000000000 ) ;
#179 = FACE_OUTER_BOUND ( 'NONE', #137, .T. ) ;
#180 = CARTESIAN_POINT ( 'NONE',  ( 0.000000000000000000, 0.000000000000000000, 0.000000000000000000 ) ) ;
#181 = CARTESIAN_POINT ( 'NONE',  ( -20.74999999999999645, -9.250000000000000000, 0.000000000000000000 ) ) ;
#182 = APPROVAL ( #190, 'UNSPECIFIED' ) ;
#183 = DESIGN_CONTEXT ( 'detailed design', #205, 'design' ) ;
#184 = EDGE_CURVE ( 'NONE', #104, #218, #123, .T. ) ;
#185 = LOCAL_TIME ( 11, 27, 46.00000000000000000, #169 ) ;
#186 = DIRECTION ( 'NONE',  ( 3.750753461571474945E-16, -1.000000000000000000, 0.000000000000000000 ) ) ;
#187 = CARTESIAN_POINT ( 'NONE',  ( 20.74999999999999645, 9.250000000000000000, 7.000000000000000000 ) ) ;
#188 = COORDINATED_UNIVERSAL_TIME_OFFSET ( 1, 0, .AHEAD. ) ;
#189 = LINE ( 'NONE', #23, #2 ) ;
#190 = APPROVAL_STATUS ( 'not_yet_approved' ) ;
#191 = ORIENTED_EDGE ( 'NONE', *, *, #135, .F. ) ;
#192 = ADVANCED_BREP_SHAPE_REPRESENTATION ( '21264500', ( #98, #231 ), #209 ) ;
#193 = EDGE_CURVE ( 'NONE', #104, #28, #18, .T. ) ;
#194 = ORIENTED_EDGE ( 'NONE', *, *, #17, .F. ) ;
#195 = EDGE_LOOP ( 'NONE', ( #139, #213, #29, #45 ) ) ;
#196 = PERSON_AND_ORGANIZATION_ROLE ( 'design_owner' ) ;
#197 = ORIENTED_EDGE ( 'NONE', *, *, #59, .T. ) ;
#198 = CARTESIAN_POINT ( 'NONE',  ( 20.74999999999999645, 9.250000000000000000, 7.000000000000000000 ) ) ;
#199 = LINE ( 'NONE', #198, #81 ) ;
#200 = DIRECTION ( 'NONE',  ( -0.000000000000000000, -0.000000000000000000, -1.000000000000000000 ) ) ;
#201 = CC_DESIGN_DATE_AND_TIME_ASSIGNMENT ( #207, #5, ( #146 ) ) ;
#202 = DIRECTION ( 'NONE',  ( 0.000000000000000000, -1.000000000000000000, 0.000000000000000000 ) ) ;
#203 = FACE_OUTER_BOUND ( 'NONE', #85, .T. ) ;
#204 = LINE ( 'NONE', #149, #47 ) ;
#205 = APPLICATION_CONTEXT ( 'configuration controlled 3d designs of mechanical parts and assemblies' ) ;
#206 = LOCAL_TIME ( 11, 27, 46.00000000000000000, #188 ) ;
#207 = DATE_AND_TIME ( #171, #84 ) ;
#208 = DIRECTION ( 'NONE',  ( -0.000000000000000000, 0.000000000000000000, 1.000000000000000000 ) ) ;
#209 =( GEOMETRIC_REPRESENTATION_CONTEXT ( 3 ) GLOBAL_UNCERTAINTY_ASSIGNED_CONTEXT ( ( #148 ) ) GLOBAL_UNIT_ASSIGNED_CONTEXT ( ( #92, #4, #164 ) ) REPRESENTATION_CONTEXT ( 'NONE', 'WORKASPACE' ) );
#210 = DATE_AND_TIME ( #82, #70 ) ;
#211 = CARTESIAN_POINT ( 'NONE',  ( -20.74999999999999645, -9.250000000000000000, 7.000000000000000000 ) ) ;
#212 = DATE_AND_TIME ( #227, #206 ) ;
#213 = ORIENTED_EDGE ( 'NONE', *, *, #193, .T. ) ;
#214 = ORIENTED_EDGE ( 'NONE', *, *, #110, .F. ) ;
#215 = ORIENTED_EDGE ( 'NONE', *, *, #222, .F. ) ;
#216 = PERSON_AND_ORGANIZATION ( #107, #38 ) ;
#217 = VECTOR ( 'NONE', #142, 1000.000000000000000 ) ;
#218 = VERTEX_POINT ( 'NONE', #237 ) ;
#219 = DIRECTION ( 'NONE',  ( 1.000000000000000000, 3.750753461571474945E-16, -0.000000000000000000 ) ) ;
#220 = CC_DESIGN_APPROVAL ( #34, ( #146 ) ) ;
#221 = PLANE ( 'NONE',  #174 ) ;
#222 = EDGE_CURVE ( 'NONE', #218, #60, #1, .T. ) ;
#223 = DIRECTION ( 'NONE',  ( -1.875376730785737473E-16, -1.000000000000000000, 0.000000000000000000 ) ) ;
#224 = CARTESIAN_POINT ( 'NONE',  ( -20.74999999999999645, -9.250000000000000000, 7.000000000000000000 ) ) ;
#225 = LINE ( 'NONE', #58, #111 ) ;
#226 = PRODUCT ( '21264500', '21264500', '', ( #32 ) ) ;
#227 = CALENDAR_DATE ( 2021, 10, 9 ) ;
#228 = ORIENTED_EDGE ( 'NONE', *, *, #184, .T. ) ;
#229 = PERSON_AND_ORGANIZATION_ROLE ( 'creator' ) ;
#230 = FACE_OUTER_BOUND ( 'NONE', #93, .T. ) ;
#231 = AXIS2_PLACEMENT_3D ( 'NONE', #180, #67, #50 ) ;
#232 = APPROVAL_DATE_TIME ( #153, #182 ) ;
#233 = CC_DESIGN_PERSON_AND_ORGANIZATION_ASSIGNMENT ( #94, #229, ( #128 ) ) ;
#234 = ADVANCED_FACE ( 'NONE', ( #203 ), #73, .F. ) ;
#235 = VERTEX_POINT ( 'NONE', #21 ) ;
#236 = APPLICATION_PROTOCOL_DEFINITION ( 'international standard', 'config_control_design', 1994, #205 ) ;
#237 = CARTESIAN_POINT ( 'NONE',  ( 20.74999999999999645, 9.250000000000000000, 0.000000000000000000 ) ) ;
ENDSEC;
END-ISO-10303-21;
