ISO-10303-21;
HEADER;
FILE_DESCRIPTION (( 'STEP AP203' ),
    '1' );
FILE_NAME ('80094500d.STEP',
    '2020-08-13T15:14:37',
    ( '' ),
    ( '' ),
    'SwSTEP 2.0',
    'SolidWorks 2018',
    '' );
FILE_SCHEMA (( 'CONFIG_CONTROL_DESIGN' ));
ENDSEC;

DATA;
#1 = COORDINATED_UNIVERSAL_TIME_OFFSET ( 1, 0, .AHEAD. ) ;
#2 = SECURITY_CLASSIFICATION ( '', '', #18 ) ;
#3 = PERSON_AND_ORGANIZATION ( #375, #281 ) ;
#4 = VECTOR ( 'NONE', #185, 1000.000000000000114 ) ;
#5 = EDGE_LOOP ( 'NONE', ( #282, #130, #94, #313 ) ) ;
#6 = ORIENTED_EDGE ( 'NONE', *, *, #17, .T. ) ;
#7 = APPROVAL_PERSON_ORGANIZATION ( #357, #214, #201 ) ;
#8 = CYLINDRICAL_SURFACE ( 'NONE', #92, 2.500000000000000444 ) ;
#9 = CARTESIAN_POINT ( 'NONE',  ( -23.89999999999999858, -13.40951325477064060, 0.0000000000000000000 ) ) ;
#10 = EDGE_CURVE ( 'NONE', #48, #189, #244, .T. ) ;
#11 = CARTESIAN_POINT ( 'NONE',  ( -23.89999999999999858, -13.40951325477064060, 0.0000000000000000000 ) ) ;
#12 = FACE_OUTER_BOUND ( 'NONE', #167, .T. ) ;
#13 = ORIENTED_EDGE ( 'NONE', *, *, #161, .F. ) ;
#14 = EDGE_CURVE ( 'NONE', #215, #34, #181, .T. ) ;
#15 = VECTOR ( 'NONE', #169, 1000.000000000000000 ) ;
#16 = ORIENTED_EDGE ( 'NONE', *, *, #218, .T. ) ;
#17 = EDGE_CURVE ( 'NONE', #73, #217, #57, .T. ) ;
#18 = SECURITY_CLASSIFICATION_LEVEL ( 'unclassified' ) ;
#19 = PERSON_AND_ORGANIZATION_ROLE ( 'design_owner' ) ;
#20 = EDGE_CURVE ( 'NONE', #219, #145, #168, .T. ) ;
#21 = DATE_AND_TIME ( #250, #98 ) ;
#22 = CARTESIAN_POINT ( 'NONE',  ( -20.81459034279435016, -15.30507708802372058, 6.799999999999999822 ) ) ;
#23 =( BOUNDED_CURVE ( )  B_SPLINE_CURVE ( 3, ( #280, #306, #165, #9 ),
 .UNSPECIFIED., .F., .F. ) 
 B_SPLINE_CURVE_WITH_KNOTS ( ( 4, 4 ),
 ( 5.501585242055419656, 7.064785372303752808 ),
 .UNSPECIFIED. ) 
 CURVE ( )  GEOMETRIC_REPRESENTATION_ITEM ( )  RATIONAL_B_SPLINE_CURVE ( ( 1.000000000000000000, 0.8065248903853482476, 0.8065248903853482476, 1.000000000000000000 ) ) 
 REPRESENTATION_ITEM ( '' )  );
#24 = CC_DESIGN_PERSON_AND_ORGANIZATION_ASSIGNMENT ( #3, #368, ( #2 ) ) ;
#25 = CARTESIAN_POINT ( 'NONE',  ( 21.06793129538584353, 13.06793129538585241, 3.686410304578593866 ) ) ;
#26 = CARTESIAN_POINT ( 'NONE',  ( 23.91877542443401694, 13.42828867920465541, -0.2146040832874162863 ) ) ;
#27 = LINE ( 'NONE', #128, #96 ) ;
#28 = ORIENTED_EDGE ( 'NONE', *, *, #68, .F. ) ;
#29 = DIRECTION ( 'NONE',  ( -0.9961946980917455452, 0.0000000000000000000, 0.08715574274765820750 ) ) ;
#30 = EDGE_CURVE ( 'NONE', #322, #73, #275, .T. ) ;
#31 = DIRECTION ( 'NONE',  ( -0.0000000000000000000, 0.0000000000000000000, 1.000000000000000000 ) ) ;
#32 = CARTESIAN_POINT ( 'NONE',  ( -23.90000000000000213, 15.30507708802371347, 6.799999999999999822 ) ) ;
#33 = AXIS2_PLACEMENT_3D ( 'NONE', #25, #109, #197 ) ;
#34 = VERTEX_POINT ( 'NONE', #11 ) ;
#35 = LOCAL_TIME ( 17, 14, 37.00000000000000000, #300 ) ;
#36 = DESIGN_CONTEXT ( 'detailed design', #173, 'design' ) ;
#37 = ORIENTED_EDGE ( 'NONE', *, *, #20, .F. ) ;
#38 = CALENDAR_DATE ( 2020, 13, 8 ) ;
#39 = ORIENTED_EDGE ( 'NONE', *, *, #350, .F. ) ;
#40 = CARTESIAN_POINT ( 'NONE',  ( 23.90000000000000568, -13.40951325477064060, 0.0000000000000000000 ) ) ;
#41 = CARTESIAN_POINT ( 'NONE',  ( -23.30507708802371880, 14.27576942708699193, 6.799999999999999822 ) ) ;
#42 = ORIENTED_EDGE ( 'NONE', *, *, #20, .T. ) ;
#43 = CC_DESIGN_DATE_AND_TIME_ASSIGNMENT ( #160, #102, ( #2 ) ) ;
#44 = VECTOR ( 'NONE', #330, 1000.000000000000114 ) ;
#45 = PLANE ( 'NONE',  #238 ) ;
#46 = FACE_OUTER_BOUND ( 'NONE', #326, .T. ) ;
#47 = DATE_AND_TIME ( #63, #152 ) ;
#48 = VERTEX_POINT ( 'NONE', #40 ) ;
#49 = CARTESIAN_POINT ( 'NONE',  ( -23.91877542443402405, 13.42828867920465363, -0.2146040832874165638 ) ) ;
#50 = CARTESIAN_POINT ( 'NONE',  ( 23.30507708802372235, -12.81459034279435549, 6.799999999999999822 ) ) ;
#51 = EDGE_CURVE ( 'NONE', #255, #215, #163, .T. ) ;
#52 = DIRECTION ( 'NONE',  ( 1.000000000000000000, 0.0000000000000000000, 0.0000000000000000000 ) ) ;
#53 = ORIENTED_EDGE ( 'NONE', *, *, #191, .F. ) ;
#54 =( GEOMETRIC_REPRESENTATION_CONTEXT ( 3 ) GLOBAL_UNCERTAINTY_ASSIGNED_CONTEXT ( ( #327 ) ) GLOBAL_UNIT_ASSIGNED_CONTEXT ( ( #87, #335, #108 ) ) REPRESENTATION_CONTEXT ( 'NONE', 'WORKASPACE' ) );
#55 = PLANE ( 'NONE',  #304 ) ;
#56 = FACE_OUTER_BOUND ( 'NONE', #315, .T. ) ;
#57 = LINE ( 'NONE', #192, #235 ) ;
#58 = ORIENTED_EDGE ( 'NONE', *, *, #225, .T. ) ;
#59 = VECTOR ( 'NONE', #146, 1000.000000000000000 ) ;
#60 = DIRECTION ( 'NONE',  ( -0.08682659386424759762, -0.08682659386424762538, 0.9924325091389669673 ) ) ;
#61 = CARTESIAN_POINT ( 'NONE',  ( 21.18855301381893241, -13.18855301381893064, 2.307697754039632176 ) ) ;
#62 = ORIENTED_EDGE ( 'NONE', *, *, #225, .F. ) ;
#63 = CALENDAR_DATE ( 2020, 13, 8 ) ;
#64 = CYLINDRICAL_SURFACE ( 'NONE', #33, 2.500000000000000444 ) ;
#65 = APPROVAL ( #283, 'UNSPECIFIED' ) ;
#66 = EDGE_LOOP ( 'NONE', ( #126, #159, #367, #37 ) ) ;
#67 = LOCAL_TIME ( 17, 14, 37.00000000000000000, #229 ) ;
#68 = EDGE_CURVE ( 'NONE', #219, #371, #157, .T. ) ;
#69 = VECTOR ( 'NONE', #154, 1000.000000000000000 ) ;
#70 = ORIENTED_EDGE ( 'NONE', *, *, #263, .F. ) ;
#71 = AXIS2_PLACEMENT_3D ( 'NONE', #211, #120, #29 ) ;
#72 = CARTESIAN_POINT ( 'NONE',  ( -23.30507708802371525, -12.81459034279435549, 6.799999999999999822 ) ) ;
#73 = VERTEX_POINT ( 'NONE', #103 ) ;
#74 = CARTESIAN_POINT ( 'NONE',  ( -23.30507708802371880, -14.27576942708699725, 6.799999999999998934 ) ) ;
#75 = DIRECTION ( 'NONE',  ( -0.08682659386424763925, 0.08682659386424762538, -0.9924325091389669673 ) ) ;
#76 = CARTESIAN_POINT ( 'NONE',  ( -23.90000000000000213, 13.40951325477063349, 0.0000000000000000000 ) ) ;
#77 = PERSON_AND_ORGANIZATION_ROLE ( 'creator' ) ;
#78 = DIRECTION ( 'NONE',  ( -3.273063162220390819E-16, 1.000000000000000000, -0.0000000000000000000 ) ) ;
#79 = VECTOR ( 'NONE', #310, 1000.000000000000114 ) ;
#80 = DIRECTION ( 'NONE',  ( 0.08682659386424763925, -0.08682659386424762538, 0.9924325091389669673 ) ) ;
#81 = CYLINDRICAL_SURFACE ( 'NONE', #71, 2.500000000000000444 ) ;
#82 = CC_DESIGN_APPROVAL ( #65, ( #2 ) ) ;
#83 = DIRECTION ( 'NONE',  ( 0.08682659386424761150, 0.08682659386424761150, 0.9924325091389669673 ) ) ;
#84 = ORIENTED_EDGE ( 'NONE', *, *, #323, .F. ) ;
#85 = CARTESIAN_POINT ( 'NONE',  ( -23.90000000000000213, 15.89999999999999680, 0.0000000000000000000 ) ) ;
#86 = SHAPE_DEFINITION_REPRESENTATION ( #301, #349 ) ;
#87 =( LENGTH_UNIT ( ) NAMED_UNIT ( * ) SI_UNIT ( .MILLI., .METRE. ) );
#88 = EDGE_CURVE ( 'NONE', #217, #255, #247, .T. ) ;
#89 = CARTESIAN_POINT ( 'NONE',  ( -23.30507708802371880, 12.81459034279434839, 6.799999999999999822 ) ) ;
#90 = FACE_OUTER_BOUND ( 'NONE', #359, .T. ) ;
#91 = PLANE ( 'NONE',  #228 ) ;
#92 = AXIS2_PLACEMENT_3D ( 'NONE', #61, #265, #295 ) ;
#93 =( BOUNDED_CURVE ( )  B_SPLINE_CURVE ( 3, ( #72, #74, #288, #291 ),
 .UNSPECIFIED., .F., .T. ) 
 B_SPLINE_CURVE_WITH_KNOTS ( ( 4, 4 ),
 ( 5.501585242055419656, 7.064785372303752808 ),
 .UNSPECIFIED. ) 
 CURVE ( )  GEOMETRIC_REPRESENTATION_ITEM ( )  RATIONAL_B_SPLINE_CURVE ( ( 1.000000000000000000, 0.8065248903853482476, 0.8065248903853482476, 1.000000000000000000 ) ) 
 REPRESENTATION_ITEM ( '' )  );
#94 = ORIENTED_EDGE ( 'NONE', *, *, #200, .F. ) ;
#95 = ADVANCED_FACE ( 'NONE', ( #224 ), #45, .T. ) ;
#96 = VECTOR ( 'NONE', #174, 1000.000000000000000 ) ;
#97 = ORIENTED_EDGE ( 'NONE', *, *, #30, .T. ) ;
#98 = LOCAL_TIME ( 17, 14, 37.00000000000000000, #186 ) ;
#99 = CARTESIAN_POINT ( 'NONE',  ( 23.30507708802371170, 12.81459034279435016, 6.799999999999999822 ) ) ;
#100 = EDGE_LOOP ( 'NONE', ( #84, #16, #97, #6 ) ) ;
#101 = CC_DESIGN_SECURITY_CLASSIFICATION ( #2, ( #289 ) ) ;
#102 = DATE_TIME_ROLE ( 'classification_date' ) ;
#103 = CARTESIAN_POINT ( 'NONE',  ( -21.40951325477063705, 15.89999999999999680, 0.0000000000000000000 ) ) ;
#104 = ORIENTED_EDGE ( 'NONE', *, *, #14, .T. ) ;
#105 = ADVANCED_FACE ( 'NONE', ( #170 ), #206, .T. ) ;
#106 = DIRECTION ( 'NONE',  ( 1.000000000000000000, -0.0000000000000000000, -0.0000000000000000000 ) ) ;
#107 = ORIENTED_EDGE ( 'NONE', *, *, #222, .T. ) ;
#108 =( NAMED_UNIT ( * ) SI_UNIT ( $, .STERADIAN. ) SOLID_ANGLE_UNIT ( ) );
#109 = DIRECTION ( 'NONE',  ( 0.08682659386424761150, 0.08682659386424763925, -0.9924325091389671893 ) ) ;
#110 = EDGE_CURVE ( 'NONE', #145, #34, #23, .T. ) ;
#111 = DATE_TIME_ROLE ( 'creation_date' ) ;
#112 = VERTEX_POINT ( 'NONE', #147 ) ;
#113 = CARTESIAN_POINT ( 'NONE',  ( 23.30507708802372591, -14.27576942708699903, 6.799999999999999822 ) ) ;
#114 = DIRECTION ( 'NONE',  ( 0.08682659386424759762, 0.08682659386424762538, -0.9924325091389669673 ) ) ;
#115 = CARTESIAN_POINT ( 'NONE',  ( -21.40951325477063705, 15.89999999999999680, 0.0000000000000000000 ) ) ;
#116 = VECTOR ( 'NONE', #78, 1000.000000000000000 ) ;
#117 = CARTESIAN_POINT ( 'NONE',  ( -23.89999999999999858, -15.90000000000000391, 0.0000000000000000000 ) ) ;
#118 = ORIENTED_EDGE ( 'NONE', *, *, #161, .T. ) ;
#119 = CARTESIAN_POINT ( 'NONE',  ( 22.87069233906325749, 15.90000000000000391, 0.0000000000000000000 ) ) ;
#120 = DIRECTION ( 'NONE',  ( -0.08682659386424765313, 0.08682659386424763925, -0.9924325091389671893 ) ) ;
#121 = DIRECTION ( 'NONE',  ( 1.000000000000000000, 0.0000000000000000000, 0.0000000000000000000 ) ) ;
#122 = ORIENTED_EDGE ( 'NONE', *, *, #200, .T. ) ;
#123 = PRODUCT_RELATED_PRODUCT_CATEGORY ( 'detail', '', ( #240 ) ) ;
#124 = APPROVAL_DATE_TIME ( #47, #214 ) ;
#125 = MANIFOLD_SOLID_BREP ( 'Verrundung1', #231 ) ;
#126 = ORIENTED_EDGE ( 'NONE', *, *, #137, .F. ) ;
#127 = ADVANCED_FACE ( 'NONE', ( #46 ), #274, .T. ) ;
#128 = CARTESIAN_POINT ( 'NONE',  ( 23.30507708802371170, 15.89999999999999680, 6.799999999999999822 ) ) ;
#129 = CARTESIAN_POINT ( 'NONE',  ( -22.87069233906327526, 15.89999999999999503, 0.0000000000000000000 ) ) ;
#130 = ORIENTED_EDGE ( 'NONE', *, *, #17, .F. ) ;
#131 = PERSON_AND_ORGANIZATION ( #375, #281 ) ;
#132 = APPROVAL_DATE_TIME ( #254, #65 ) ;
#133 = CARTESIAN_POINT ( 'NONE',  ( -23.90000000000000213, 15.89999999999999680, 0.0000000000000000000 ) ) ;
#134 = VERTEX_POINT ( 'NONE', #99 ) ;
#135 = APPROVAL_ROLE ( '' ) ;
#136 = CARTESIAN_POINT ( 'NONE',  ( -20.81459034279435372, 15.30507708802371347, 6.799999999999999822 ) ) ;
#137 = EDGE_CURVE ( 'NONE', #316, #219, #93, .T. ) ;
#138 = CARTESIAN_POINT ( 'NONE',  ( 21.40951325477062639, -15.90000000000000391, 0.0000000000000000000 ) ) ;
#139 = CARTESIAN_POINT ( 'NONE',  ( -22.27576942708699548, 15.30507708802371170, 6.799999999999999822 ) ) ;
#140 = LINE ( 'NONE', #353, #69 ) ;
#141 = PERSON_AND_ORGANIZATION_ROLE ( 'creator' ) ;
#142 = PERSON_AND_ORGANIZATION ( #375, #281 ) ;
#143 = CARTESIAN_POINT ( 'NONE',  ( 23.30507708802372235, -12.81459034279435549, 6.799999999999999822 ) ) ;
#144 = PERSON_AND_ORGANIZATION ( #375, #281 ) ;
#145 = VERTEX_POINT ( 'NONE', #372 ) ;
#146 = DIRECTION ( 'NONE',  ( -1.000000000000000000, 0.0000000000000000000, -0.0000000000000000000 ) ) ;
#147 = CARTESIAN_POINT ( 'NONE',  ( 20.81459034279433951, 15.30507708802371347, 6.799999999999999822 ) ) ;
#148 = DIRECTION ( 'NONE',  ( 0.0000000000000000000, -0.9961946980917455452, 0.08715574274765820750 ) ) ;
#149 = DIRECTION ( 'NONE',  ( 0.08715574274765820750, 0.0000000000000000000, 0.9961946980917455452 ) ) ;
#150 = CARTESIAN_POINT ( 'NONE',  ( 20.81459034279433951, 15.30507708802371347, 6.799999999999999822 ) ) ;
#151 = PLANE ( 'NONE',  #158 ) ;
#152 = LOCAL_TIME ( 17, 14, 37.00000000000000000, #302 ) ;
#153 = FACE_OUTER_BOUND ( 'NONE', #5, .T. ) ;
#154 = DIRECTION ( 'NONE',  ( 1.091021054073463401E-16, -1.000000000000000000, 0.0000000000000000000 ) ) ;
#155 = EDGE_CURVE ( 'NONE', #284, #371, #264, .T. ) ;
#156 = AXIS2_PLACEMENT_3D ( 'NONE', #257, #236, #52 ) ;
#157 = LINE ( 'NONE', #307, #290 ) ;
#158 = AXIS2_PLACEMENT_3D ( 'NONE', #376, #31, #237 ) ;
#159 = ORIENTED_EDGE ( 'NONE', *, *, #328, .F. ) ;
#160 = DATE_AND_TIME ( #177, #67 ) ;
#161 = EDGE_CURVE ( 'NONE', #145, #284, #358, .T. ) ;
#162 = CARTESIAN_POINT ( 'NONE',  ( 23.89999999999999503, 15.89999999999999680, 0.0000000000000000000 ) ) ;
#163 = LINE ( 'NONE', #49, #239 ) ;
#164 =( BOUNDED_CURVE ( )  B_SPLINE_CURVE ( 3, ( #76, #286, #129, #115 ),
 .UNSPECIFIED., .F., .F. ) 
 B_SPLINE_CURVE_WITH_KNOTS ( ( 4, 4 ),
 ( 5.501585242055420544, 7.064785372303752808 ),
 .UNSPECIFIED. ) 
 CURVE ( )  GEOMETRIC_REPRESENTATION_ITEM ( )  RATIONAL_B_SPLINE_CURVE ( ( 1.000000000000000000, 0.8065248903853483586, 0.8065248903853483586, 1.000000000000000000 ) ) 
 REPRESENTATION_ITEM ( '' )  );
#165 = CARTESIAN_POINT ( 'NONE',  ( -23.89999999999999858, -14.87069233906328236, 0.0000000000000000000 ) ) ;
#166 = DIRECTION ( 'NONE',  ( 0.0000000000000000000, -0.08715574274765820750, 0.9961946980917455452 ) ) ;
#167 = EDGE_LOOP ( 'NONE', ( #266, #190, #13, #339, #366, #122, #209, #261 ) ) ;
#168 = LINE ( 'NONE', #259, #44 ) ;
#169 = DIRECTION ( 'NONE',  ( -1.000000000000000000, -0.0000000000000000000, -0.0000000000000000000 ) ) ;
#170 = FACE_OUTER_BOUND ( 'NONE', #66, .T. ) ;
#171 = CARTESIAN_POINT ( 'NONE',  ( 20.81459034279435727, -15.30507708802372058, 6.799999999999999822 ) ) ;
#172 = ADVANCED_FACE ( 'NONE', ( #90 ), #64, .T. ) ;
#173 = APPLICATION_CONTEXT ( 'configuration controlled 3d designs of mechanical parts and assemblies' ) ;
#174 = DIRECTION ( 'NONE',  ( -3.273063162220390819E-16, 1.000000000000000000, -0.0000000000000000000 ) ) ;
#175 = APPROVAL_PERSON_ORGANIZATION ( #142, #65, #135 ) ;
#176 = VECTOR ( 'NONE', #216, 1000.000000000000000 ) ;
#177 = CALENDAR_DATE ( 2020, 13, 8 ) ;
#178 = CC_DESIGN_PERSON_AND_ORGANIZATION_ASSIGNMENT ( #144, #19, ( #240 ) ) ;
#179 = DIRECTION ( 'NONE',  ( 1.000000000000000000, 0.0000000000000000000, 0.0000000000000000000 ) ) ;
#180 = ORIENTED_EDGE ( 'NONE', *, *, #191, .T. ) ;
#181 = LINE ( 'NONE', #133, #176 ) ;
#182 = CARTESIAN_POINT ( 'NONE',  ( 23.30507708802370104, 14.27576942708699193, 6.799999999999998934 ) ) ;
#183 = EDGE_LOOP ( 'NONE', ( #188, #58, #180, #198, #345, #243, #299, #193 ) ) ;
#184 = CARTESIAN_POINT ( 'NONE',  ( 20.81459034279435727, -15.30507708802372058, 6.799999999999999822 ) ) ;
#185 = DIRECTION ( 'NONE',  ( 0.08682659386424765313, -0.08682659386424762538, -0.9924325091389669673 ) ) ;
#186 = COORDINATED_UNIVERSAL_TIME_OFFSET ( 1, 0, .AHEAD. ) ;
#187 = CARTESIAN_POINT ( 'NONE',  ( -23.67903975904828684, -13.18855301381893064, 2.525587110908775745 ) ) ;
#188 = ORIENTED_EDGE ( 'NONE', *, *, #68, .T. ) ;
#189 = VERTEX_POINT ( 'NONE', #276 ) ;
#190 = ORIENTED_EDGE ( 'NONE', *, *, #333, .T. ) ;
#191 = EDGE_CURVE ( 'NONE', #199, #134, #27, .T. ) ;
#192 = CARTESIAN_POINT ( 'NONE',  ( -21.42828867920465896, 15.91877542443401872, -0.2146040832874165638 ) ) ;
#193 = ORIENTED_EDGE ( 'NONE', *, *, #137, .T. ) ;
#194 = PRODUCT_DEFINITION ( 'UNKNOWN', '', #289, #36 ) ;
#195 = DIRECTION ( 'NONE',  ( 0.0000000000000000000, 0.9961946980917455452, -0.08715574274765822138 ) ) ;
#196 = AXIS2_PLACEMENT_3D ( 'NONE', #212, #298, #121 ) ;
#197 = DIRECTION ( 'NONE',  ( 0.0000000000000000000, 0.9961946980917455452, 0.08715574274765819363 ) ) ;
#198 = ORIENTED_EDGE ( 'NONE', *, *, #355, .T. ) ;
#199 = VERTEX_POINT ( 'NONE', #50 ) ;
#200 = EDGE_CURVE ( 'NONE', #215, #73, #164, .T. ) ;
#201 = APPROVAL_ROLE ( '' ) ;
#202 = MECHANICAL_CONTEXT ( 'NONE', #285, 'mechanical' ) ;
#203 = ORIENTED_EDGE ( 'NONE', *, *, #241, .F. ) ;
#204 = CARTESIAN_POINT ( 'NONE',  ( 21.40951325477062639, -15.90000000000000391, 0.0000000000000000000 ) ) ;
#205 = CARTESIAN_POINT ( 'NONE',  ( 23.89999999999999147, 14.87069233906328414, 0.0000000000000000000 ) ) ;
#206 = CYLINDRICAL_SURFACE ( 'NONE', #277, 2.500000000000000444 ) ;
#207 = PERSON_AND_ORGANIZATION ( #375, #281 ) ;
#208 = CARTESIAN_POINT ( 'NONE',  ( 21.06793129538584353, 15.55841804061521749, 3.904299661447739211 ) ) ;
#209 = ORIENTED_EDGE ( 'NONE', *, *, #30, .F. ) ;
#210 = CARTESIAN_POINT ( 'NONE',  ( -23.90000000000000213, 13.40951325477063349, 0.0000000000000000000 ) ) ;
#211 = CARTESIAN_POINT ( 'NONE',  ( -21.42828867920465896, 13.42828867920465363, -0.4324934401565619924 ) ) ;
#212 = CARTESIAN_POINT ( 'NONE',  ( 0.0000000000000000000, 0.0000000000000000000, 0.0000000000000000000 ) ) ;
#213 = EDGE_LOOP ( 'NONE', ( #118, #278, #28, #42 ) ) ;
#214 = APPROVAL ( #336, 'UNSPECIFIED' ) ;
#215 = VERTEX_POINT ( 'NONE', #210 ) ;
#216 = DIRECTION ( 'NONE',  ( 1.091021054073463524E-16, -1.000000000000000000, 0.0000000000000000000 ) ) ;
#217 = VERTEX_POINT ( 'NONE', #314 ) ;
#218 = EDGE_CURVE ( 'NONE', #112, #322, #318, .T. ) ;
#219 = VERTEX_POINT ( 'NONE', #22 ) ;
#220 = ADVANCED_FACE ( 'NONE', ( #296 ), #8, .T. ) ;
#221 = PERSON_AND_ORGANIZATION_ROLE ( 'design_supplier' ) ;
#222 = EDGE_CURVE ( 'NONE', #189, #134, #246, .T. ) ;
#223 = VECTOR ( 'NONE', #179, 1000.000000000000000 ) ;
#224 = FACE_OUTER_BOUND ( 'NONE', #100, .T. ) ;
#225 = EDGE_CURVE ( 'NONE', #371, #199, #356, .T. ) ;
#226 =( BOUNDED_CURVE ( )  B_SPLINE_CURVE ( 3, ( #293, #373, #311, #138 ),
 .UNSPECIFIED., .F., .F. ) 
 B_SPLINE_CURVE_WITH_KNOTS ( ( 4, 4 ),
 ( 5.501585242055420544, 7.064785372303759026 ),
 .UNSPECIFIED. ) 
 CURVE ( )  GEOMETRIC_REPRESENTATION_ITEM ( )  RATIONAL_B_SPLINE_CURVE ( ( 1.000000000000000000, 0.8065248903853469153, 0.8065248903853469153, 1.000000000000000000 ) ) 
 REPRESENTATION_ITEM ( '' )  );
#227 = CC_DESIGN_APPROVAL ( #214, ( #194 ) ) ;
#228 = AXIS2_PLACEMENT_3D ( 'NONE', #117, #148, #346 ) ;
#229 = COORDINATED_UNIVERSAL_TIME_OFFSET ( 1, 0, .AHEAD. ) ;
#230 = FACE_OUTER_BOUND ( 'NONE', #183, .T. ) ;
#231 = CLOSED_SHELL ( 'NONE', ( #334, #331, #127, #95, #245, #252, #220, #172, #105, #362 ) ) ;
#232 = CARTESIAN_POINT ( 'NONE',  ( -23.30507708802371880, 12.81459034279434839, 6.799999999999999822 ) ) ;
#233 = CARTESIAN_POINT ( 'NONE',  ( 23.89999999999999503, 13.40951325477063349, 0.0000000000000000000 ) ) ;
#234 = CARTESIAN_POINT ( 'NONE',  ( 21.06793129538585418, -15.55841804061522460, 3.904299661447742764 ) ) ;
#235 = VECTOR ( 'NONE', #80, 1000.000000000000114 ) ;
#236 = DIRECTION ( 'NONE',  ( 0.0000000000000000000, 0.0000000000000000000, 1.000000000000000000 ) ) ;
#237 = DIRECTION ( 'NONE',  ( 1.000000000000000000, 0.0000000000000000000, 0.0000000000000000000 ) ) ;
#238 = AXIS2_PLACEMENT_3D ( 'NONE', #344, #279, #166 ) ;
#239 = VECTOR ( 'NONE', #75, 1000.000000000000114 ) ;
#240 = PRODUCT ( '80094500d', '80094500d', '', ( #202 ) ) ;
#241 = EDGE_CURVE ( 'NONE', #199, #48, #242, .T. ) ;
#242 = LINE ( 'NONE', #337, #4 ) ;
#243 = ORIENTED_EDGE ( 'NONE', *, *, #88, .T. ) ;
#244 = LINE ( 'NONE', #162, #116 ) ;
#245 = ADVANCED_FACE ( 'NONE', ( #230 ), #151, .T. ) ;
#246 = LINE ( 'NONE', #26, #363 ) ;
#247 =( BOUNDED_CURVE ( )  B_SPLINE_CURVE ( 3, ( #136, #139, #41, #232 ),
 .UNSPECIFIED., .F., .T. ) 
 B_SPLINE_CURVE_WITH_KNOTS ( ( 4, 4 ),
 ( 5.501585242055419656, 7.064785372303751920 ),
 .UNSPECIFIED. ) 
 CURVE ( )  GEOMETRIC_REPRESENTATION_ITEM ( )  RATIONAL_B_SPLINE_CURVE ( ( 1.000000000000000000, 0.8065248903853483586, 0.8065248903853483586, 1.000000000000000000 ) ) 
 REPRESENTATION_ITEM ( '' )  );
#248 = CARTESIAN_POINT ( 'NONE',  ( -23.90000000000000213, 15.89999999999999680, 0.0000000000000000000 ) ) ;
#249 = VECTOR ( 'NONE', #114, 1000.000000000000114 ) ;
#250 = CALENDAR_DATE ( 2020, 13, 8 ) ;
#251 = CC_DESIGN_PERSON_AND_ORGANIZATION_ASSIGNMENT ( #207, #141, ( #194 ) ) ;
#252 = ADVANCED_FACE ( 'NONE', ( #12 ), #267, .F. ) ;
#253 = ORIENTED_EDGE ( 'NONE', *, *, #10, .T. ) ;
#254 = DATE_AND_TIME ( #38, #354 ) ;
#255 = VERTEX_POINT ( 'NONE', #89 ) ;
#256 = DATE_AND_TIME ( #340, #35 ) ;
#257 = CARTESIAN_POINT ( 'NONE',  ( 0.0000000000000000000, 0.0000000000000000000, 0.0000000000000000000 ) ) ;
#258 = APPROVAL_ROLE ( '' ) ;
#259 = CARTESIAN_POINT ( 'NONE',  ( -21.42828867920465541, -15.91877542443402582, -0.2146040832874164528 ) ) ;
#260 = PERSON_AND_ORGANIZATION ( #375, #281 ) ;
#261 = ORIENTED_EDGE ( 'NONE', *, *, #350, .T. ) ;
#262 = ORIENTED_EDGE ( 'NONE', *, *, #218, .F. ) ;
#263 = EDGE_CURVE ( 'NONE', #255, #316, #140, .T. ) ;
#264 = LINE ( 'NONE', #234, #79 ) ;
#265 = DIRECTION ( 'NONE',  ( 0.08682659386424766701, -0.08682659386424763925, -0.9924325091389671893 ) ) ;
#266 = ORIENTED_EDGE ( 'NONE', *, *, #10, .F. ) ;
#267 = PLANE ( 'NONE',  #196 ) ;
#268 = ORIENTED_EDGE ( 'NONE', *, *, #51, .T. ) ;
#269 = CARTESIAN_POINT ( 'NONE',  ( 21.40951325477060863, 15.89999999999999680, 0.0000000000000000000 ) ) ;
#270 = CC_DESIGN_DATE_AND_TIME_ASSIGNMENT ( #21, #111, ( #194 ) ) ;
#271 = ORIENTED_EDGE ( 'NONE', *, *, #355, .F. ) ;
#272 = ORIENTED_EDGE ( 'NONE', *, *, #155, .F. ) ;
#273 = LINE ( 'NONE', #32, #59 ) ;
#274 = PLANE ( 'NONE',  #324 ) ;
#275 = LINE ( 'NONE', #248, #15 ) ;
#276 = CARTESIAN_POINT ( 'NONE',  ( 23.89999999999999503, 13.40951325477063349, 0.0000000000000000000 ) ) ;
#277 = AXIS2_PLACEMENT_3D ( 'NONE', #329, #325, #195 ) ;
#278 = ORIENTED_EDGE ( 'NONE', *, *, #155, .T. ) ;
#279 = DIRECTION ( 'NONE',  ( 0.0000000000000000000, 0.9961946980917455452, 0.08715574274765820750 ) ) ;
#280 = CARTESIAN_POINT ( 'NONE',  ( -21.40951325477063349, -15.90000000000000391, 0.0000000000000000000 ) ) ;
#281 = ORGANIZATION ( 'UNSPECIFIED', 'UNSPECIFIED', '' ) ;
#282 = ORIENTED_EDGE ( 'NONE', *, *, #88, .F. ) ;
#283 = APPROVAL_STATUS ( 'not_yet_approved' ) ;
#284 = VERTEX_POINT ( 'NONE', #204 ) ;
#285 = APPLICATION_CONTEXT ( 'configuration controlled 3d designs of mechanical parts and assemblies' ) ;
#286 = CARTESIAN_POINT ( 'NONE',  ( -23.90000000000000568, 14.87069233906327526, 0.0000000000000000000 ) ) ;
#287 = APPROVAL_STATUS ( 'not_yet_approved' ) ;
#288 = CARTESIAN_POINT ( 'NONE',  ( -22.27576942708699548, -15.30507708802371880, 6.799999999999998934 ) ) ;
#289 = PRODUCT_DEFINITION_FORMATION_WITH_SPECIFIED_SOURCE ( 'ANY', '', #240, .NOT_KNOWN. ) ;
#290 = VECTOR ( 'NONE', #106, 1000.000000000000000 ) ;
#291 = CARTESIAN_POINT ( 'NONE',  ( -20.81459034279435016, -15.30507708802372058, 6.799999999999999822 ) ) ;
#292 = ORIENTED_EDGE ( 'NONE', *, *, #333, .F. ) ;
#293 = CARTESIAN_POINT ( 'NONE',  ( 23.90000000000000568, -13.40951325477064060, 0.0000000000000000000 ) ) ;
#294 = DIRECTION ( 'NONE',  ( -0.9961946980917455452, -1.086869389574451928E-16, 0.08715574274765820750 ) ) ;
#295 = DIRECTION ( 'NONE',  ( -0.9961946980917455452, 0.0000000000000000000, -0.08715574274765819363 ) ) ;
#296 = FACE_OUTER_BOUND ( 'NONE', #305, .T. ) ;
#297 = ORIENTED_EDGE ( 'NONE', *, *, #222, .F. ) ;
#298 = DIRECTION ( 'NONE',  ( -0.0000000000000000000, 0.0000000000000000000, 1.000000000000000000 ) ) ;
#299 = ORIENTED_EDGE ( 'NONE', *, *, #263, .T. ) ;
#300 = COORDINATED_UNIVERSAL_TIME_OFFSET ( 1, 0, .AHEAD. ) ;
#301 = PRODUCT_DEFINITION_SHAPE ( 'NONE', 'NONE',  #194 ) ;
#302 = COORDINATED_UNIVERSAL_TIME_OFFSET ( 1, 0, .AHEAD. ) ;
#303 = APPROVAL ( #287, 'UNSPECIFIED' ) ;
#304 = AXIS2_PLACEMENT_3D ( 'NONE', #85, #294, #149 ) ;
#305 = EDGE_LOOP ( 'NONE', ( #62, #272, #292, #203 ) ) ;
#306 = CARTESIAN_POINT ( 'NONE',  ( -22.87069233906327526, -15.90000000000000036, 0.0000000000000000000 ) ) ;
#307 = CARTESIAN_POINT ( 'NONE',  ( -23.89999999999999858, -15.30507708802372058, 6.799999999999999822 ) ) ;
#308 =( BOUNDED_CURVE ( )  B_SPLINE_CURVE ( 3, ( #348, #182, #317, #150 ),
 .UNSPECIFIED., .F., .F. ) 
 B_SPLINE_CURVE_WITH_KNOTS ( ( 4, 4 ),
 ( 5.501585242055419656, 7.064785372303752808 ),
 .UNSPECIFIED. ) 
 CURVE ( )  GEOMETRIC_REPRESENTATION_ITEM ( )  RATIONAL_B_SPLINE_CURVE ( ( 1.000000000000000000, 0.8065248903853482476, 0.8065248903853482476, 1.000000000000000000 ) ) 
 REPRESENTATION_ITEM ( '' )  );
#309 = APPLICATION_PROTOCOL_DEFINITION ( 'international standard', 'config_control_design', 1994, #285 ) ;
#310 = DIRECTION ( 'NONE',  ( -0.08682659386424765313, 0.08682659386424762538, 0.9924325091389669673 ) ) ;
#311 = CARTESIAN_POINT ( 'NONE',  ( 22.87069233906327526, -15.90000000000001101, 0.0000000000000000000 ) ) ;
#312 = DIRECTION ( 'NONE',  ( 0.08715574274765820750, 0.0000000000000000000, -0.9961946980917455452 ) ) ;
#313 = ORIENTED_EDGE ( 'NONE', *, *, #51, .F. ) ;
#314 = CARTESIAN_POINT ( 'NONE',  ( -20.81459034279435372, 15.30507708802371347, 6.799999999999999822 ) ) ;
#315 = EDGE_LOOP ( 'NONE', ( #104, #343, #70, #268 ) ) ;
#316 = VERTEX_POINT ( 'NONE', #377 ) ;
#317 = CARTESIAN_POINT ( 'NONE',  ( 22.27576942708698127, 15.30507708802371170, 6.799999999999998934 ) ) ;
#318 = LINE ( 'NONE', #208, #249 ) ;
#319 = APPROVAL_PERSON_ORGANIZATION ( #260, #303, #258 ) ;
#320 = CC_DESIGN_APPROVAL ( #303, ( #289 ) ) ;
#321 = PERSON_AND_ORGANIZATION ( #375, #281 ) ;
#322 = VERTEX_POINT ( 'NONE', #269 ) ;
#323 = EDGE_CURVE ( 'NONE', #112, #217, #273, .T. ) ;
#324 = AXIS2_PLACEMENT_3D ( 'NONE', #338, #364, #312 ) ;
#325 = DIRECTION ( 'NONE',  ( -0.08682659386424762538, -0.08682659386424763925, -0.9924325091389671893 ) ) ;
#326 = EDGE_LOOP ( 'NONE', ( #53, #332, #253, #107 ) ) ;
#327 = UNCERTAINTY_MEASURE_WITH_UNIT (LENGTH_MEASURE( 1.000000000000000082E-05 ), #87, 'distance_accuracy_value', 'NONE');
#328 = EDGE_CURVE ( 'NONE', #34, #316, #360, .T. ) ;
#329 = CARTESIAN_POINT ( 'NONE',  ( -21.42828867920465541, -13.42828867920466074, -0.4324934401565618813 ) ) ;
#330 = DIRECTION ( 'NONE',  ( -0.08682659386424761150, -0.08682659386424762538, -0.9924325091389669673 ) ) ;
#331 = ADVANCED_FACE ( 'NONE', ( #370 ), #91, .T. ) ;
#332 = ORIENTED_EDGE ( 'NONE', *, *, #241, .T. ) ;
#333 = EDGE_CURVE ( 'NONE', #48, #284, #226, .T. ) ;
#334 = ADVANCED_FACE ( 'NONE', ( #56 ), #55, .T. ) ;
#335 =( NAMED_UNIT ( * ) PLANE_ANGLE_UNIT ( ) SI_UNIT ( $, .RADIAN. ) );
#336 = APPROVAL_STATUS ( 'not_yet_approved' ) ;
#337 = CARTESIAN_POINT ( 'NONE',  ( 23.67903975904829394, -13.18855301381892708, 2.525587110908777078 ) ) ;
#338 = CARTESIAN_POINT ( 'NONE',  ( 23.89999999999999503, 15.89999999999999680, 0.0000000000000000000 ) ) ;
#339 = ORIENTED_EDGE ( 'NONE', *, *, #110, .T. ) ;
#340 = CALENDAR_DATE ( 2020, 13, 8 ) ;
#341 = CC_DESIGN_PERSON_AND_ORGANIZATION_ASSIGNMENT ( #131, #77, ( #289 ) ) ;
#342 = CARTESIAN_POINT ( 'NONE',  ( -23.89999999999999858, -15.90000000000000391, 0.0000000000000000000 ) ) ;
#343 = ORIENTED_EDGE ( 'NONE', *, *, #328, .T. ) ;
#344 = CARTESIAN_POINT ( 'NONE',  ( -23.90000000000000213, 15.89999999999999680, 0.0000000000000000000 ) ) ;
#345 = ORIENTED_EDGE ( 'NONE', *, *, #323, .T. ) ;
#346 = DIRECTION ( 'NONE',  ( 0.0000000000000000000, -0.08715574274765820750, -0.9961946980917455452 ) ) ;
#347 = VECTOR ( 'NONE', #83, 1000.000000000000114 ) ;
#348 = CARTESIAN_POINT ( 'NONE',  ( 23.30507708802371170, 12.81459034279435016, 6.799999999999999822 ) ) ;
#349 = ADVANCED_BREP_SHAPE_REPRESENTATION ( '80094500d', ( #125, #156 ), #54 ) ;
#350 = EDGE_CURVE ( 'NONE', #322, #189, #351, .T. ) ;
#351 =( BOUNDED_CURVE ( )  B_SPLINE_CURVE ( 3, ( #374, #119, #205, #233 ),
 .UNSPECIFIED., .F., .F. ) 
 B_SPLINE_CURVE_WITH_KNOTS ( ( 4, 4 ),
 ( 5.501585242055414327, 7.064785372303753697 ),
 .UNSPECIFIED. ) 
 CURVE ( )  GEOMETRIC_REPRESENTATION_ITEM ( )  RATIONAL_B_SPLINE_CURVE ( ( 1.000000000000000000, 0.8065248903853468043, 0.8065248903853468043, 1.000000000000000000 ) ) 
 REPRESENTATION_ITEM ( '' )  );
#352 = CARTESIAN_POINT ( 'NONE',  ( 22.27576942708699548, -15.30507708802372413, 6.799999999999999822 ) ) ;
#353 = CARTESIAN_POINT ( 'NONE',  ( -23.30507708802371880, 15.89999999999999680, 6.799999999999999822 ) ) ;
#354 = LOCAL_TIME ( 17, 14, 37.00000000000000000, #1 ) ;
#355 = EDGE_CURVE ( 'NONE', #134, #112, #308, .T. ) ;
#356 =( BOUNDED_CURVE ( )  B_SPLINE_CURVE ( 3, ( #184, #352, #113, #143 ),
 .UNSPECIFIED., .F., .T. ) 
 B_SPLINE_CURVE_WITH_KNOTS ( ( 4, 4 ),
 ( 5.501585242055418767, 7.064785372303752808 ),
 .UNSPECIFIED. ) 
 CURVE ( )  GEOMETRIC_REPRESENTATION_ITEM ( )  RATIONAL_B_SPLINE_CURVE ( ( 1.000000000000000000, 0.8065248903853481366, 0.8065248903853481366, 1.000000000000000000 ) ) 
 REPRESENTATION_ITEM ( '' )  );
#357 = PERSON_AND_ORGANIZATION ( #375, #281 ) ;
#358 = LINE ( 'NONE', #342, #223 ) ;
#359 = EDGE_LOOP ( 'NONE', ( #271, #297, #39, #262 ) ) ;
#360 = LINE ( 'NONE', #187, #347 ) ;
#361 = APPROVAL_DATE_TIME ( #256, #303 ) ;
#362 = ADVANCED_FACE ( 'NONE', ( #153 ), #81, .T. ) ;
#363 = VECTOR ( 'NONE', #60, 1000.000000000000114 ) ;
#364 = DIRECTION ( 'NONE',  ( 0.9961946980917455452, 3.260608168723355907E-16, 0.08715574274765820750 ) ) ;
#365 = CC_DESIGN_PERSON_AND_ORGANIZATION_ASSIGNMENT ( #321, #221, ( #289 ) ) ;
#366 = ORIENTED_EDGE ( 'NONE', *, *, #14, .F. ) ;
#367 = ORIENTED_EDGE ( 'NONE', *, *, #110, .F. ) ;
#368 = PERSON_AND_ORGANIZATION_ROLE ( 'classification_officer' ) ;
#369 = APPLICATION_PROTOCOL_DEFINITION ( 'international standard', 'config_control_design', 1994, #173 ) ;
#370 = FACE_OUTER_BOUND ( 'NONE', #213, .T. ) ;
#371 = VERTEX_POINT ( 'NONE', #171 ) ;
#372 = CARTESIAN_POINT ( 'NONE',  ( -21.40951325477063349, -15.90000000000000391, 0.0000000000000000000 ) ) ;
#373 = CARTESIAN_POINT ( 'NONE',  ( 23.90000000000000568, -14.87069233906328947, 0.0000000000000000000 ) ) ;
#374 = CARTESIAN_POINT ( 'NONE',  ( 21.40951325477060863, 15.89999999999999680, 0.0000000000000000000 ) ) ;
#375 = PERSON ( 'UNSPECIFIED', 'UNSPECIFIED', 'UNSPECIFIED', ('UNSPECIFIED'), ('UNSPECIFIED'), ('UNSPECIFIED') ) ;
#376 = CARTESIAN_POINT ( 'NONE',  ( 0.0000000000000000000, 0.0000000000000000000, 6.799999999999999822 ) ) ;
#377 = CARTESIAN_POINT ( 'NONE',  ( -23.30507708802371525, -12.81459034279435549, 6.799999999999999822 ) ) ;
ENDSEC;
END-ISO-10303-21;
