ISO-10303-21;
HEADER;
FILE_DESCRIPTION (( 'STEP AP203' ),
    '1' );
FILE_NAME ('80254500d.STEP',
    '2020-08-12T15:28:20',
    ( '' ),
    ( '' ),
    'SwSTEP 2.0',
    'SolidWorks 2018',
    '' );
FILE_SCHEMA (( 'CONFIG_CONTROL_DESIGN' ));
ENDSEC;

DATA;
#1 = FACE_OUTER_BOUND ( 'NONE', #150, .T. ) ;
#2 =( BOUNDED_CURVE ( )  B_SPLINE_CURVE ( 3, ( #109, #131, #220, #277 ),
 .UNSPECIFIED., .F., .T. ) 
 B_SPLINE_CURVE_WITH_KNOTS ( ( 4, 4 ),
 ( 5.503250352303677317, 7.063120262055489817 ),
 .UNSPECIFIED. ) 
 CURVE ( )  GEOMETRIC_REPRESENTATION_ITEM ( )  RATIONAL_B_SPLINE_CURVE ( ( 1.000000000000000000, 0.8073061876036324858, 0.8073061876036324858, 1.000000000000000000 ) ) 
 REPRESENTATION_ITEM ( '' )  );
#3 = ORIENTED_EDGE ( 'NONE', *, *, #163, .F. ) ;
#4 = AXIS2_PLACEMENT_3D ( 'NONE', #347, #29, #260 ) ;
#5 = EDGE_CURVE ( 'NONE', #203, #258, #252, .T. ) ;
#6 = MECHANICAL_CONTEXT ( 'NONE', #209, 'mechanical' ) ;
#7 = AXIS2_PLACEMENT_3D ( 'NONE', #266, #240, #213 ) ;
#8 = CARTESIAN_POINT ( 'NONE',  ( 19.65916611787456603, 88.76289829273845555, 8.000000000000000000 ) ) ;
#9 = DIRECTION ( 'NONE',  ( 0.0000000000000000000, -0.1045284632676537068, -0.9945218953682734009 ) ) ;
#10 = COORDINATED_UNIVERSAL_TIME_OFFSET ( 1, 0, .AHEAD. ) ;
#11 = CARTESIAN_POINT ( 'NONE',  ( -20.50000000000000711, 90.42499999999999716, 0.0000000000000000000 ) ) ;
#12 = FACE_OUTER_BOUND ( 'NONE', #113, .T. ) ;
#13 = ORIENTED_EDGE ( 'NONE', *, *, #61, .F. ) ;
#14 = PRODUCT ( '80254500d', '80254500d', '', ( #6 ) ) ;
#15 = VECTOR ( 'NONE', #37, 1000.000000000000114 ) ;
#16 = ORIENTED_EDGE ( 'NONE', *, *, #161, .F. ) ;
#17 = DIRECTION ( 'NONE',  ( 1.000000000000000000, -0.0000000000000000000, -0.0000000000000000000 ) ) ;
#18 = DIRECTION ( 'NONE',  ( -1.151046818452954740E-16, 1.000000000000000000, -0.0000000000000000000 ) ) ;
#19 = DATE_AND_TIME ( #97, #173 ) ;
#20 = LINE ( 'NONE', #187, #318 ) ;
#21 = PLANE ( 'NONE',  #58 ) ;
#22 = VECTOR ( 'NONE', #162, 1000.000000000000114 ) ;
#23 = CARTESIAN_POINT ( 'NONE',  ( -20.49999999999998579, -88.43595620926346612, 0.0000000000000000000 ) ) ;
#24 = ORIENTED_EDGE ( 'NONE', *, *, #118, .F. ) ;
#25 = EDGE_CURVE ( 'NONE', #346, #246, #20, .T. ) ;
#26 = EDGE_CURVE ( 'NONE', #258, #110, #99, .T. ) ;
#27 = ORIENTED_EDGE ( 'NONE', *, *, #237, .F. ) ;
#28 = LINE ( 'NONE', #111, #90 ) ;
#29 = DIRECTION ( 'NONE',  ( -0.0000000000000000000, 0.0000000000000000000, 1.000000000000000000 ) ) ;
#30 = VERTEX_POINT ( 'NONE', #35 ) ;
#31 = ADVANCED_FACE ( 'NONE', ( #12 ), #230, .T. ) ;
#32 = MANIFOLD_SOLID_BREP ( 'Verrundung1', #315 ) ;
#33 = PERSON_AND_ORGANIZATION_ROLE ( 'creator' ) ;
#34 = DIRECTION ( 'NONE',  ( 0.0000000000000000000, 0.0000000000000000000, 1.000000000000000000 ) ) ;
#35 = CARTESIAN_POINT ( 'NONE',  ( -20.49999999999998579, -88.43595620926346612, 0.0000000000000000000 ) ) ;
#36 = DIRECTION ( 'NONE',  ( 0.0000000000000000000, -0.9945218953682734009, 0.1045284632676537068 ) ) ;
#37 = DIRECTION ( 'NONE',  ( 0.1039620511844979306, -0.1039620511844979306, -0.9891328443778538704 ) ) ;
#38 = VECTOR ( 'NONE', #17, 1000.000000000000000 ) ;
#39 = CARTESIAN_POINT ( 'NONE',  ( -19.65916611787456247, -88.76289829273846976, 8.000000000000000000 ) ) ;
#40 = CARTESIAN_POINT ( 'NONE',  ( 18.83789829273843353, 89.58416611787455963, 8.000000000000000000 ) ) ;
#41 = EDGE_CURVE ( 'NONE', #70, #160, #312, .T. ) ;
#42 = ORIENTED_EDGE ( 'NONE', *, *, #61, .T. ) ;
#43 = EDGE_CURVE ( 'NONE', #110, #127, #331, .T. ) ;
#44 = CARTESIAN_POINT ( 'NONE',  ( -19.65916611787457313, -87.59512232713805702, 8.000000000000000000 ) ) ;
#45 = AXIS2_PLACEMENT_3D ( 'NONE', #115, #352, #123 ) ;
#46 = PERSON_AND_ORGANIZATION ( #189, #371 ) ;
#47 = CARTESIAN_POINT ( 'NONE',  ( 0.0000000000000000000, 0.0000000000000000000, 0.0000000000000000000 ) ) ;
#48 = LINE ( 'NONE', #193, #267 ) ;
#49 = ORIENTED_EDGE ( 'NONE', *, *, #139, .T. ) ;
#50 = CARTESIAN_POINT ( 'NONE',  ( 19.65916611787459090, -88.76289829273845555, 8.000000000000000000 ) ) ;
#51 = CARTESIAN_POINT ( 'NONE',  ( 20.49999999999999289, 88.43595620926346612, 0.0000000000000000000 ) ) ;
#52 = VERTEX_POINT ( 'NONE', #69 ) ;
#53 = PERSON_AND_ORGANIZATION ( #189, #371 ) ;
#54 = LINE ( 'NONE', #103, #353 ) ;
#55 = ORIENTED_EDGE ( 'NONE', *, *, #5, .F. ) ;
#56 = ORIENTED_EDGE ( 'NONE', *, *, #5, .T. ) ;
#57 = ADVANCED_FACE ( 'NONE', ( #375 ), #362, .T. ) ;
#58 = AXIS2_PLACEMENT_3D ( 'NONE', #335, #168, #341 ) ;
#59 = EDGE_CURVE ( 'NONE', #169, #272, #96, .T. ) ;
#60 = PERSON_AND_ORGANIZATION_ROLE ( 'creator' ) ;
#61 = EDGE_CURVE ( 'NONE', #153, #203, #271, .T. ) ;
#62 = DIRECTION ( 'NONE',  ( 1.000000000000000000, 0.0000000000000000000, 0.0000000000000000000 ) ) ;
#63 = COORDINATED_UNIVERSAL_TIME_OFFSET ( 1, 0, .AHEAD. ) ;
#64 =( GEOMETRIC_REPRESENTATION_CONTEXT ( 3 ) GLOBAL_UNCERTAINTY_ASSIGNED_CONTEXT ( ( #342 ) ) GLOBAL_UNIT_ASSIGNED_CONTEXT ( ( #238, #329, #121 ) ) REPRESENTATION_CONTEXT ( 'NONE', 'WORKASPACE' ) );
#65 = DIRECTION ( 'NONE',  ( 0.1039620511844979445, -0.1039620511844979306, 0.9891328443778538704 ) ) ;
#66 = CARTESIAN_POINT ( 'NONE',  ( -19.65916611787459445, 87.59512232713804281, 8.000000000000000000 ) ) ;
#67 = LINE ( 'NONE', #251, #194 ) ;
#68 = ORIENTED_EDGE ( 'NONE', *, *, #41, .F. ) ;
#69 = CARTESIAN_POINT ( 'NONE',  ( 20.50000000000001421, -88.43595620926346612, 0.0000000000000000000 ) ) ;
#70 = VERTEX_POINT ( 'NONE', #245 ) ;
#71 = DATE_AND_TIME ( #143, #223 ) ;
#72 = CARTESIAN_POINT ( 'NONE',  ( -18.83789829273842287, -89.58416611787457384, 8.000000000000000000 ) ) ;
#73 = CARTESIAN_POINT ( 'NONE',  ( 19.65916611787460155, -87.59512232713805702, 8.000000000000000000 ) ) ;
#74 =( BOUNDED_CURVE ( )  B_SPLINE_CURVE ( 3, ( #314, #281, #50, #367 ),
 .UNSPECIFIED., .F., .F. ) 
 B_SPLINE_CURVE_WITH_KNOTS ( ( 4, 4 ),
 ( 5.503250352303673765, 7.063120262055482712 ),
 .UNSPECIFIED. ) 
 CURVE ( )  GEOMETRIC_REPRESENTATION_ITEM ( )  RATIONAL_B_SPLINE_CURVE ( ( 1.000000000000000000, 0.8073061876036332629, 0.8073061876036332629, 1.000000000000000000 ) ) 
 REPRESENTATION_ITEM ( '' )  );
#75 = EDGE_LOOP ( 'NONE', ( #13, #16, #370, #55 ) ) ;
#76 = CARTESIAN_POINT ( 'NONE',  ( -18.53245400954248012, -90.44649780027901897, -0.2045379068188618588 ) ) ;
#77 = ORIENTED_EDGE ( 'NONE', *, *, #105, .F. ) ;
#78 = DIRECTION ( 'NONE',  ( 1.151046818452954740E-16, -1.000000000000000000, 0.0000000000000000000 ) ) ;
#79 = VERTEX_POINT ( 'NONE', #73 ) ;
#80 = PERSON_AND_ORGANIZATION ( #189, #371 ) ;
#81 = VECTOR ( 'NONE', #65, 1000.000000000000114 ) ;
#82 = CARTESIAN_POINT ( 'NONE',  ( -20.50000000000000711, 88.43595620926345191, 0.0000000000000000000 ) ) ;
#83 = ORIENTED_EDGE ( 'NONE', *, *, #217, .F. ) ;
#84 = FACE_OUTER_BOUND ( 'NONE', #75, .T. ) ;
#85 = EDGE_CURVE ( 'NONE', #160, #227, #54, .T. ) ;
#86 = EDGE_CURVE ( 'NONE', #127, #346, #206, .T. ) ;
#87 = AXIS2_PLACEMENT_3D ( 'NONE', #95, #211, #330 ) ;
#88 = PERSON_AND_ORGANIZATION ( #189, #371 ) ;
#89 = DIRECTION ( 'NONE',  ( -0.1039620511844979306, 0.1039620511844979306, -0.9891328443778538704 ) ) ;
#90 = VECTOR ( 'NONE', #364, 1000.000000000000000 ) ;
#91 = ADVANCED_FACE ( 'NONE', ( #124 ), #159, .T. ) ;
#92 = ORIENTED_EDGE ( 'NONE', *, *, #86, .F. ) ;
#93 = DIRECTION ( 'NONE',  ( 1.151046818452954740E-16, -1.000000000000000000, 0.0000000000000000000 ) ) ;
#94 = CARTESIAN_POINT ( 'NONE',  ( -18.53245400954250144, 90.44649780027901897, -0.2045379068188619698 ) ) ;
#95 = CARTESIAN_POINT ( 'NONE',  ( -18.53245400954248012, -88.45745400954248794, -0.4135948333541693556 ) ) ;
#96 =( BOUNDED_CURVE ( )  B_SPLINE_CURVE ( 3, ( #265, #39, #72, #358 ),
 .UNSPECIFIED., .F., .T. ) 
 B_SPLINE_CURVE_WITH_KNOTS ( ( 4, 4 ),
 ( 5.503250352303689752, 7.063120262055496923 ),
 .UNSPECIFIED. ) 
 CURVE ( )  GEOMETRIC_REPRESENTATION_ITEM ( )  RATIONAL_B_SPLINE_CURVE ( ( 1.000000000000000000, 0.8073061876036338180, 0.8073061876036338180, 1.000000000000000000 ) ) 
 REPRESENTATION_ITEM ( '' )  );
#97 = CALENDAR_DATE ( 2020, 12, 8 ) ;
#98 = PLANE ( 'NONE',  #7 ) ;
#99 = LINE ( 'NONE', #177, #167 ) ;
#100 = CARTESIAN_POINT ( 'NONE',  ( 17.67012232713803144, 89.58416611787457384, 8.000000000000000000 ) ) ;
#101 = FACE_OUTER_BOUND ( 'NONE', #356, .T. ) ;
#102 = DIRECTION ( 'NONE',  ( -0.9945218953682734009, 0.0000000000000000000, -0.1045284632676529712 ) ) ;
#103 = CARTESIAN_POINT ( 'NONE',  ( 18.08932157799650042, -90.00336536873301441, 4.011585548395757428 ) ) ;
#104 = ORIENTED_EDGE ( 'NONE', *, *, #217, .T. ) ;
#105 = EDGE_CURVE ( 'NONE', #227, #79, #74, .T. ) ;
#106 = DIRECTION ( 'NONE',  ( 0.9945218953682734009, 1.144741263545453307E-16, 0.1045284632676537068 ) ) ;
#107 = EDGE_CURVE ( 'NONE', #346, #169, #202, .T. ) ;
#108 = DIRECTION ( 'NONE',  ( 1.000000000000000000, 0.0000000000000000000, 0.0000000000000000000 ) ) ;
#109 = CARTESIAN_POINT ( 'NONE',  ( 18.51095620926344409, 90.42499999999999716, 0.0000000000000000000 ) ) ;
#110 = VERTEX_POINT ( 'NONE', #282 ) ;
#111 = CARTESIAN_POINT ( 'NONE',  ( 19.65916611787458024, 90.42499999999999716, 8.000000000000000000 ) ) ;
#112 = CARTESIAN_POINT ( 'NONE',  ( -19.65916611787459445, 90.42499999999999716, 8.000000000000000000 ) ) ;
#113 = EDGE_LOOP ( 'NONE', ( #77, #125, #175, #27 ) ) ;
#114 = CARTESIAN_POINT ( 'NONE',  ( -20.49999999999997868, -89.60373217486386466, 0.0000000000000000000 ) ) ;
#115 = CARTESIAN_POINT ( 'NONE',  ( 18.08932157799646490, 88.01432157799648337, 3.802528621860447711 ) ) ;
#116 = VECTOR ( 'NONE', #93, 1000.000000000000000 ) ;
#117 = PERSON_AND_ORGANIZATION_ROLE ( 'classification_officer' ) ;
#118 = EDGE_CURVE ( 'NONE', #52, #215, #67, .T. ) ;
#119 = DATE_TIME_ROLE ( 'creation_date' ) ;
#120 = EDGE_CURVE ( 'NONE', #30, #169, #48, .T. ) ;
#121 =( NAMED_UNIT ( * ) SI_UNIT ( $, .STERADIAN. ) SOLID_ANGLE_UNIT ( ) );
#122 = DATE_AND_TIME ( #199, #276 ) ;
#123 = DIRECTION ( 'NONE',  ( 0.0000000000000000000, 0.9945218953682732899, 0.1045284632676538733 ) ) ;
#124 = FACE_OUTER_BOUND ( 'NONE', #365, .T. ) ;
#125 = ORIENTED_EDGE ( 'NONE', *, *, #85, .F. ) ;
#126 = DIRECTION ( 'NONE',  ( -0.1039620511844979583, 0.1039620511844979445, -0.9891328443778539814 ) ) ;
#127 = VERTEX_POINT ( 'NONE', #164 ) ;
#128 = CARTESIAN_POINT ( 'NONE',  ( 20.50000000000001421, -88.43595620926346612, 0.0000000000000000000 ) ) ;
#129 = PLANE ( 'NONE',  #324 ) ;
#130 = APPROVAL_DATE_TIME ( #210, #200 ) ;
#131 = CARTESIAN_POINT ( 'NONE',  ( 19.67873217486384263, 90.42499999999999716, 0.0000000000000000000 ) ) ;
#132 = EDGE_LOOP ( 'NONE', ( #368, #376, #333, #142 ) ) ;
#133 = EDGE_LOOP ( 'NONE', ( #373, #287, #269, #372 ) ) ;
#134 = CARTESIAN_POINT ( 'NONE',  ( 17.67012232713803144, 89.58416611787457384, 8.000000000000000000 ) ) ;
#135 = AXIS2_PLACEMENT_3D ( 'NONE', #339, #36, #9 ) ;
#136 =( BOUNDED_CURVE ( )  B_SPLINE_CURVE ( 3, ( #128, #340, #310, #224 ),
 .UNSPECIFIED., .F., .T. ) 
 B_SPLINE_CURVE_WITH_KNOTS ( ( 4, 4 ),
 ( 5.503250352303689752, 7.063120262055498699 ),
 .UNSPECIFIED. ) 
 CURVE ( )  GEOMETRIC_REPRESENTATION_ITEM ( )  RATIONAL_B_SPLINE_CURVE ( ( 1.000000000000000000, 0.8073061876036332629, 0.8073061876036332629, 1.000000000000000000 ) ) 
 REPRESENTATION_ITEM ( '' )  );
#137 = EDGE_CURVE ( 'NONE', #258, #215, #2, .T. ) ;
#138 = APPROVAL_PERSON_ORGANIZATION ( #218, #200, #293 ) ;
#139 = EDGE_CURVE ( 'NONE', #272, #227, #345, .T. ) ;
#140 = AXIS2_PLACEMENT_3D ( 'NONE', #183, #34, #62 ) ;
#141 = ORIENTED_EDGE ( 'NONE', *, *, #257, .F. ) ;
#142 = ORIENTED_EDGE ( 'NONE', *, *, #85, .T. ) ;
#143 = CALENDAR_DATE ( 2020, 12, 8 ) ;
#144 = CARTESIAN_POINT ( 'NONE',  ( 18.08932157799647200, 90.00336536873301441, 4.011585548395755652 ) ) ;
#145 = ADVANCED_FACE ( 'NONE', ( #156 ), #129, .F. ) ;
#146 = CYLINDRICAL_SURFACE ( 'NONE', #45, 1.999999999999995115 ) ;
#147 = DATE_TIME_ROLE ( 'classification_date' ) ;
#148 = ORIENTED_EDGE ( 'NONE', *, *, #26, .F. ) ;
#149 = APPLICATION_CONTEXT ( 'configuration controlled 3d designs of mechanical parts and assemblies' ) ;
#150 = EDGE_LOOP ( 'NONE', ( #204, #286, #83, #3 ) ) ;
#151 = CARTESIAN_POINT ( 'NONE',  ( 19.65916611787458024, 87.59512232713805702, 8.000000000000000000 ) ) ;
#152 = CARTESIAN_POINT ( 'NONE',  ( 18.51095620926344409, 90.42499999999999716, 0.0000000000000000000 ) ) ;
#153 = VERTEX_POINT ( 'NONE', #192 ) ;
#154 = CARTESIAN_POINT ( 'NONE',  ( -19.67873217486387816, 90.42499999999998295, 0.0000000000000000000 ) ) ;
#155 = DATE_AND_TIME ( #229, #311 ) ;
#156 = FACE_OUTER_BOUND ( 'NONE', #197, .T. ) ;
#157 = LINE ( 'NONE', #186, #15 ) ;
#158 = VECTOR ( 'NONE', #285, 1000.000000000000000 ) ;
#159 = PLANE ( 'NONE',  #4 ) ;
#160 = VERTEX_POINT ( 'NONE', #250 ) ;
#161 = EDGE_CURVE ( 'NONE', #215, #153, #253, .T. ) ;
#162 = DIRECTION ( 'NONE',  ( -0.1039620511844979306, -0.1039620511844979306, -0.9891328443778538704 ) ) ;
#163 = EDGE_CURVE ( 'NONE', #272, #70, #332, .T. ) ;
#164 = CARTESIAN_POINT ( 'NONE',  ( -17.67012232713804920, 89.58416611787457384, 8.000000000000000000 ) ) ;
#165 = CC_DESIGN_PERSON_AND_ORGANIZATION_ASSIGNMENT ( #295, #182, ( #14 ) ) ;
#166 = PERSON_AND_ORGANIZATION ( #189, #371 ) ;
#167 = VECTOR ( 'NONE', #304, 1000.000000000000000 ) ;
#168 = DIRECTION ( 'NONE',  ( 0.0000000000000000000, 0.9945218953682734009, 0.1045284632676537068 ) ) ;
#169 = VERTEX_POINT ( 'NONE', #44 ) ;
#170 = CARTESIAN_POINT ( 'NONE',  ( 17.67012232713805275, -89.58416611787457384, 8.000000000000000000 ) ) ;
#171 = ORIENTED_EDGE ( 'NONE', *, *, #86, .T. ) ;
#172 = CC_DESIGN_APPROVAL ( #196, ( #278 ) ) ;
#173 = LOCAL_TIME ( 17, 28, 20.00000000000000000, #264 ) ;
#174 = VECTOR ( 'NONE', #288, 1000.000000000000114 ) ;
#175 = ORIENTED_EDGE ( 'NONE', *, *, #181, .F. ) ;
#176 = VECTOR ( 'NONE', #336, 1000.000000000000114 ) ;
#177 = CARTESIAN_POINT ( 'NONE',  ( -20.50000000000000711, 90.42499999999999716, 0.0000000000000000000 ) ) ;
#178 = ADVANCED_FACE ( 'NONE', ( #101 ), #308, .T. ) ;
#179 = ORIENTED_EDGE ( 'NONE', *, *, #105, .T. ) ;
#180 = SECURITY_CLASSIFICATION_LEVEL ( 'unclassified' ) ;
#181 = EDGE_CURVE ( 'NONE', #52, #160, #136, .T. ) ;
#182 = PERSON_AND_ORGANIZATION_ROLE ( 'design_owner' ) ;
#183 = CARTESIAN_POINT ( 'NONE',  ( 0.0000000000000000000, 0.0000000000000000000, 0.0000000000000000000 ) ) ;
#184 = PRODUCT_DEFINITION ( 'UNKNOWN', '', #278, #319 ) ;
#185 = DIRECTION ( 'NONE',  ( 1.000000000000000000, 0.0000000000000000000, 0.0000000000000000000 ) ) ;
#186 = CARTESIAN_POINT ( 'NONE',  ( 18.56685145283766758, -86.50280766210109107, 18.39267982185342021 ) ) ;
#187 = CARTESIAN_POINT ( 'NONE',  ( -20.52149780027904669, 88.45745400954248794, -0.2045379068188623028 ) ) ;
#188 = CARTESIAN_POINT ( 'NONE',  ( -17.67012232713802788, -89.58416611787457384, 8.000000000000000000 ) ) ;
#189 = PERSON ( 'UNSPECIFIED', 'UNSPECIFIED', 'UNSPECIFIED', ('UNSPECIFIED'), ('UNSPECIFIED'), ('UNSPECIFIED') ) ;
#190 = CC_DESIGN_PERSON_AND_ORGANIZATION_ASSIGNMENT ( #241, #33, ( #278 ) ) ;
#191 = CARTESIAN_POINT ( 'NONE',  ( 20.49999999999999289, 90.42499999999999716, 0.0000000000000000000 ) ) ;
#192 = CARTESIAN_POINT ( 'NONE',  ( 19.65916611787458024, 87.59512232713805702, 8.000000000000000000 ) ) ;
#193 = CARTESIAN_POINT ( 'NONE',  ( -18.56685145283764271, -86.50280766210111949, 18.39267982185341666 ) ) ;
#194 = VECTOR ( 'NONE', #18, 1000.000000000000000 ) ;
#195 = ORIENTED_EDGE ( 'NONE', *, *, #43, .T. ) ;
#196 = APPROVAL ( #262, 'UNSPECIFIED' ) ;
#197 = EDGE_LOOP ( 'NONE', ( #148, #354, #24, #300, #68, #104, #280, #201 ) ) ;
#198 = EDGE_CURVE ( 'NONE', #79, #153, #28, .T. ) ;
#199 = CALENDAR_DATE ( 2020, 12, 8 ) ;
#200 = APPROVAL ( #350, 'UNSPECIFIED' ) ;
#201 = ORIENTED_EDGE ( 'NONE', *, *, #257, .T. ) ;
#202 = LINE ( 'NONE', #112, #214 ) ;
#203 = VERTEX_POINT ( 'NONE', #134 ) ;
#204 = ORIENTED_EDGE ( 'NONE', *, *, #59, .F. ) ;
#205 = ADVANCED_FACE ( 'NONE', ( #322 ), #21, .T. ) ;
#206 =( BOUNDED_CURVE ( )  B_SPLINE_CURVE ( 3, ( #334, #233, #270, #360 ),
 .UNSPECIFIED., .F., .T. ) 
 B_SPLINE_CURVE_WITH_KNOTS ( ( 4, 4 ),
 ( 5.503250352303675541, 7.063120262055496923 ),
 .UNSPECIFIED. ) 
 CURVE ( )  GEOMETRIC_REPRESENTATION_ITEM ( )  RATIONAL_B_SPLINE_CURVE ( ( 1.000000000000000000, 0.8073061876036304874, 0.8073061876036304874, 1.000000000000000000 ) ) 
 REPRESENTATION_ITEM ( '' )  );
#207 = CC_DESIGN_PERSON_AND_ORGANIZATION_ASSIGNMENT ( #166, #349, ( #278 ) ) ;
#208 = CARTESIAN_POINT ( 'NONE',  ( -18.51095620926346186, 90.42499999999999716, 0.0000000000000000000 ) ) ;
#209 = APPLICATION_CONTEXT ( 'configuration controlled 3d designs of mechanical parts and assemblies' ) ;
#210 = DATE_AND_TIME ( #284, #361 ) ;
#211 = DIRECTION ( 'NONE',  ( -0.1039620511844979306, -0.1039620511844979445, -0.9891328443778539814 ) ) ;
#212 = DIRECTION ( 'NONE',  ( -0.9945218953682734009, 0.0000000000000000000, 0.1045284632676536235 ) ) ;
#213 = DIRECTION ( 'NONE',  ( 0.1045284632676537068, 0.0000000000000000000, 0.9945218953682734009 ) ) ;
#214 = VECTOR ( 'NONE', #78, 1000.000000000000000 ) ;
#215 = VERTEX_POINT ( 'NONE', #51 ) ;
#216 = ORIENTED_EDGE ( 'NONE', *, *, #198, .F. ) ;
#217 = EDGE_CURVE ( 'NONE', #70, #30, #316, .T. ) ;
#218 = PERSON_AND_ORGANIZATION ( #189, #371 ) ;
#219 = EDGE_LOOP ( 'NONE', ( #92, #289, #141, #320 ) ) ;
#220 = CARTESIAN_POINT ( 'NONE',  ( 20.49999999999998224, 89.60373217486385045, 0.0000000000000000000 ) ) ;
#221 = CC_DESIGN_APPROVAL ( #200, ( #184 ) ) ;
#222 = ORIENTED_EDGE ( 'NONE', *, *, #107, .T. ) ;
#223 = LOCAL_TIME ( 17, 28, 20.00000000000000000, #301 ) ;
#224 = CARTESIAN_POINT ( 'NONE',  ( 18.51095620926346541, -90.42499999999999716, 0.0000000000000000000 ) ) ;
#225 = AXIS2_PLACEMENT_3D ( 'NONE', #244, #357, #102 ) ;
#226 = SECURITY_CLASSIFICATION ( '', '', #180 ) ;
#227 = VERTEX_POINT ( 'NONE', #170 ) ;
#228 = ORIENTED_EDGE ( 'NONE', *, *, #59, .T. ) ;
#229 = CALENDAR_DATE ( 2020, 12, 8 ) ;
#230 = CYLINDRICAL_SURFACE ( 'NONE', #225, 2.000000000000000000 ) ;
#231 = ADVANCED_FACE ( 'NONE', ( #232 ), #313, .T. ) ;
#232 = FACE_OUTER_BOUND ( 'NONE', #132, .T. ) ;
#233 = CARTESIAN_POINT ( 'NONE',  ( -18.83789829273845839, 89.58416611787457384, 8.000000000000000000 ) ) ;
#234 = LINE ( 'NONE', #298, #158 ) ;
#235 = ORIENTED_EDGE ( 'NONE', *, *, #161, .T. ) ;
#236 = APPROVAL_ROLE ( '' ) ;
#237 = EDGE_CURVE ( 'NONE', #79, #52, #157, .T. ) ;
#238 =( LENGTH_UNIT ( ) NAMED_UNIT ( * ) SI_UNIT ( .MILLI., .METRE. ) );
#239 = CC_DESIGN_PERSON_AND_ORGANIZATION_ASSIGNMENT ( #53, #60, ( #184 ) ) ;
#240 = DIRECTION ( 'NONE',  ( -0.9945218953682734009, -1.144741263545453307E-16, 0.1045284632676537068 ) ) ;
#241 = PERSON_AND_ORGANIZATION ( #189, #371 ) ;
#242 = VECTOR ( 'NONE', #185, 1000.000000000000000 ) ;
#243 = CARTESIAN_POINT ( 'NONE',  ( -20.50000000000000711, 88.43595620926345191, 0.0000000000000000000 ) ) ;
#244 = CARTESIAN_POINT ( 'NONE',  ( 16.57780766210112233, -86.50280766210109107, 18.18362289531811271 ) ) ;
#245 = CARTESIAN_POINT ( 'NONE',  ( -18.51095620926344054, -90.42499999999999716, 0.0000000000000000000 ) ) ;
#246 = VERTEX_POINT ( 'NONE', #82 ) ;
#247 = AXIS2_PLACEMENT_3D ( 'NONE', #302, #126, #212 ) ;
#248 = CC_DESIGN_PERSON_AND_ORGANIZATION_ASSIGNMENT ( #88, #117, ( #226 ) ) ;
#249 =( BOUNDED_CURVE ( )  B_SPLINE_CURVE ( 3, ( #243, #355, #154, #208 ),
 .UNSPECIFIED., .F., .T. ) 
 B_SPLINE_CURVE_WITH_KNOTS ( ( 4, 4 ),
 ( 5.503250352303675541, 7.063120262055496923 ),
 .UNSPECIFIED. ) 
 CURVE ( )  GEOMETRIC_REPRESENTATION_ITEM ( )  RATIONAL_B_SPLINE_CURVE ( ( 1.000000000000000000, 0.8073061876036304874, 0.8073061876036304874, 1.000000000000000000 ) ) 
 REPRESENTATION_ITEM ( '' )  );
#250 = CARTESIAN_POINT ( 'NONE',  ( 18.51095620926346541, -90.42499999999999716, 0.0000000000000000000 ) ) ;
#251 = CARTESIAN_POINT ( 'NONE',  ( 20.49999999999999289, 90.42499999999999716, 0.0000000000000000000 ) ) ;
#252 = LINE ( 'NONE', #144, #174 ) ;
#253 = LINE ( 'NONE', #275, #176 ) ;
#254 = DIRECTION ( 'NONE',  ( 0.1039620511844979167, 0.1039620511844979306, 0.9891328443778538704 ) ) ;
#255 = CARTESIAN_POINT ( 'NONE',  ( -19.67873217486384263, -90.42499999999999716, 0.0000000000000000000 ) ) ;
#256 = ORIENTED_EDGE ( 'NONE', *, *, #198, .T. ) ;
#257 = EDGE_CURVE ( 'NONE', #246, #110, #249, .T. ) ;
#258 = VERTEX_POINT ( 'NONE', #152 ) ;
#259 = CC_DESIGN_DATE_AND_TIME_ASSIGNMENT ( #122, #119, ( #184 ) ) ;
#260 = DIRECTION ( 'NONE',  ( 1.000000000000000000, 0.0000000000000000000, 0.0000000000000000000 ) ) ;
#261 = CC_DESIGN_DATE_AND_TIME_ASSIGNMENT ( #155, #147, ( #226 ) ) ;
#262 = APPROVAL_STATUS ( 'not_yet_approved' ) ;
#263 = CARTESIAN_POINT ( 'NONE',  ( -20.49999999999998579, -90.42499999999999716, 0.0000000000000000000 ) ) ;
#264 = COORDINATED_UNIVERSAL_TIME_OFFSET ( 1, 0, .AHEAD. ) ;
#265 = CARTESIAN_POINT ( 'NONE',  ( -19.65916611787457313, -87.59512232713805702, 8.000000000000000000 ) ) ;
#266 = CARTESIAN_POINT ( 'NONE',  ( -20.50000000000000711, 90.42499999999999716, 0.0000000000000000000 ) ) ;
#267 = VECTOR ( 'NONE', #254, 1000.000000000000114 ) ;
#268 = PRODUCT_DEFINITION_SHAPE ( 'NONE', 'NONE',  #184 ) ;
#269 = ORIENTED_EDGE ( 'NONE', *, *, #274, .T. ) ;
#270 = CARTESIAN_POINT ( 'NONE',  ( -19.65916611787460155, 88.76289829273845555, 8.000000000000000000 ) ) ;
#271 =( BOUNDED_CURVE ( )  B_SPLINE_CURVE ( 3, ( #151, #8, #40, #100 ),
 .UNSPECIFIED., .F., .T. ) 
 B_SPLINE_CURVE_WITH_KNOTS ( ( 4, 4 ),
 ( 5.503250352303682646, 7.063120262055495147 ),
 .UNSPECIFIED. ) 
 CURVE ( )  GEOMETRIC_REPRESENTATION_ITEM ( )  RATIONAL_B_SPLINE_CURVE ( ( 1.000000000000000000, 0.8073061876036324858, 0.8073061876036324858, 1.000000000000000000 ) ) 
 REPRESENTATION_ITEM ( '' )  );
#272 = VERTEX_POINT ( 'NONE', #188 ) ;
#273 = DIRECTION ( 'NONE',  ( 0.1045284632676537068, 0.0000000000000000000, -0.9945218953682734009 ) ) ;
#274 = EDGE_CURVE ( 'NONE', #246, #30, #377, .T. ) ;
#275 = CARTESIAN_POINT ( 'NONE',  ( 20.52149780027903248, 88.45745400954250215, -0.2045379068188608318 ) ) ;
#276 = LOCAL_TIME ( 17, 28, 20.00000000000000000, #351 ) ;
#277 = CARTESIAN_POINT ( 'NONE',  ( 20.49999999999999289, 88.43595620926346612, 0.0000000000000000000 ) ) ;
#278 = PRODUCT_DEFINITION_FORMATION_WITH_SPECIFIED_SOURCE ( 'ANY', '', #14, .NOT_KNOWN. ) ;
#279 = ORIENTED_EDGE ( 'NONE', *, *, #294, .T. ) ;
#280 = ORIENTED_EDGE ( 'NONE', *, *, #274, .F. ) ;
#281 = CARTESIAN_POINT ( 'NONE',  ( 18.83789829273845129, -89.58416611787454542, 8.000000000000000000 ) ) ;
#282 = CARTESIAN_POINT ( 'NONE',  ( -18.51095620926346186, 90.42499999999999716, 0.0000000000000000000 ) ) ;
#283 = APPROVAL ( #326, 'UNSPECIFIED' ) ;
#284 = CALENDAR_DATE ( 2020, 12, 8 ) ;
#285 = DIRECTION ( 'NONE',  ( -1.000000000000000000, 0.0000000000000000000, -0.0000000000000000000 ) ) ;
#286 = ORIENTED_EDGE ( 'NONE', *, *, #120, .F. ) ;
#287 = ORIENTED_EDGE ( 'NONE', *, *, #25, .T. ) ;
#288 = DIRECTION ( 'NONE',  ( 0.1039620511844979306, 0.1039620511844979306, -0.9891328443778538704 ) ) ;
#289 = ORIENTED_EDGE ( 'NONE', *, *, #43, .F. ) ;
#290 = ORIENTED_EDGE ( 'NONE', *, *, #294, .F. ) ;
#291 = ADVANCED_FACE ( 'NONE', ( #303 ), #98, .T. ) ;
#292 = APPROVAL_ROLE ( '' ) ;
#293 = APPROVAL_ROLE ( '' ) ;
#294 = EDGE_CURVE ( 'NONE', #203, #127, #234, .T. ) ;
#295 = PERSON_AND_ORGANIZATION ( #189, #371 ) ;
#296 = APPLICATION_PROTOCOL_DEFINITION ( 'international standard', 'config_control_design', 1994, #209 ) ;
#297 = ADVANCED_BREP_SHAPE_REPRESENTATION ( '80254500d', ( #32, #140 ), #64 ) ;
#298 = CARTESIAN_POINT ( 'NONE',  ( -20.50000000000000711, 89.58416611787457384, 8.000000000000000000 ) ) ;
#299 = ORIENTED_EDGE ( 'NONE', *, *, #237, .T. ) ;
#300 = ORIENTED_EDGE ( 'NONE', *, *, #181, .T. ) ;
#301 = COORDINATED_UNIVERSAL_TIME_OFFSET ( 1, 0, .AHEAD. ) ;
#302 = CARTESIAN_POINT ( 'NONE',  ( -18.53245400954250144, 88.45745400954248794, -0.4135948333541690225 ) ) ;
#303 = FACE_OUTER_BOUND ( 'NONE', #133, .T. ) ;
#304 = DIRECTION ( 'NONE',  ( -1.000000000000000000, -0.0000000000000000000, -0.0000000000000000000 ) ) ;
#305 = SHAPE_DEFINITION_REPRESENTATION ( #268, #297 ) ;
#306 = DIRECTION ( 'NONE',  ( -0.1039620511844979445, 0.1039620511844979306, 0.9891328443778538704 ) ) ;
#307 = CC_DESIGN_APPROVAL ( #283, ( #226 ) ) ;
#308 = PLANE ( 'NONE',  #359 ) ;
#309 = DIRECTION ( 'NONE',  ( -0.0000000000000000000, 0.0000000000000000000, 1.000000000000000000 ) ) ;
#310 = CARTESIAN_POINT ( 'NONE',  ( 19.67873217486386395, -90.42499999999999716, 0.0000000000000000000 ) ) ;
#311 = LOCAL_TIME ( 17, 28, 20.00000000000000000, #10 ) ;
#312 = LINE ( 'NONE', #263, #242 ) ;
#313 = PLANE ( 'NONE',  #135 ) ;
#314 = CARTESIAN_POINT ( 'NONE',  ( 17.67012232713805275, -89.58416611787457384, 8.000000000000000000 ) ) ;
#315 = CLOSED_SHELL ( 'NONE', ( #291, #231, #178, #205, #91, #145, #323, #57, #348, #31 ) ) ;
#316 =( BOUNDED_CURVE ( )  B_SPLINE_CURVE ( 3, ( #338, #255, #114, #23 ),
 .UNSPECIFIED., .F., .F. ) 
 B_SPLINE_CURVE_WITH_KNOTS ( ( 4, 4 ),
 ( 5.503250352303675541, 7.063120262055489817 ),
 .UNSPECIFIED. ) 
 CURVE ( )  GEOMETRIC_REPRESENTATION_ITEM ( )  RATIONAL_B_SPLINE_CURVE ( ( 1.000000000000000000, 0.8073061876036320417, 0.8073061876036320417, 1.000000000000000000 ) ) 
 REPRESENTATION_ITEM ( '' )  );
#317 = APPROVAL_DATE_TIME ( #19, #196 ) ;
#318 = VECTOR ( 'NONE', #89, 1000.000000000000114 ) ;
#319 = DESIGN_CONTEXT ( 'detailed design', #149, 'design' ) ;
#320 = ORIENTED_EDGE ( 'NONE', *, *, #25, .F. ) ;
#321 = ORIENTED_EDGE ( 'NONE', *, *, #26, .T. ) ;
#322 = FACE_OUTER_BOUND ( 'NONE', #325, .T. ) ;
#323 = ADVANCED_FACE ( 'NONE', ( #84 ), #146, .T. ) ;
#324 = AXIS2_PLACEMENT_3D ( 'NONE', #47, #309, #108 ) ;
#325 = EDGE_LOOP ( 'NONE', ( #290, #56, #321, #195 ) ) ;
#326 = APPROVAL_STATUS ( 'not_yet_approved' ) ;
#327 = CC_DESIGN_SECURITY_CLASSIFICATION ( #226, ( #278 ) ) ;
#328 = APPLICATION_PROTOCOL_DEFINITION ( 'international standard', 'config_control_design', 1994, #149 ) ;
#329 =( NAMED_UNIT ( * ) PLANE_ANGLE_UNIT ( ) SI_UNIT ( $, .RADIAN. ) );
#330 = DIRECTION ( 'NONE',  ( 0.0000000000000000000, 0.9945218953682732899, -0.1045284632676539566 ) ) ;
#331 = LINE ( 'NONE', #94, #81 ) ;
#332 = LINE ( 'NONE', #76, #22 ) ;
#333 = ORIENTED_EDGE ( 'NONE', *, *, #41, .T. ) ;
#334 = CARTESIAN_POINT ( 'NONE',  ( -17.67012232713804920, 89.58416611787457384, 8.000000000000000000 ) ) ;
#335 = CARTESIAN_POINT ( 'NONE',  ( -20.50000000000000711, 90.42499999999999716, 0.0000000000000000000 ) ) ;
#336 = DIRECTION ( 'NONE',  ( -0.1039620511844979167, -0.1039620511844979306, 0.9891328443778538704 ) ) ;
#337 = CARTESIAN_POINT ( 'NONE',  ( -20.49999999999998579, -89.58416611787457384, 8.000000000000000000 ) ) ;
#338 = CARTESIAN_POINT ( 'NONE',  ( -18.51095620926344054, -90.42499999999999716, 0.0000000000000000000 ) ) ;
#339 = CARTESIAN_POINT ( 'NONE',  ( -20.49999999999998579, -90.42499999999999716, 0.0000000000000000000 ) ) ;
#340 = CARTESIAN_POINT ( 'NONE',  ( 20.50000000000000000, -89.60373217486387887, 0.0000000000000000000 ) ) ;
#341 = DIRECTION ( 'NONE',  ( 0.0000000000000000000, -0.1045284632676537068, 0.9945218953682734009 ) ) ;
#342 = UNCERTAINTY_MEASURE_WITH_UNIT (LENGTH_MEASURE( 1.000000000000000082E-05 ), #238, 'distance_accuracy_value', 'NONE');
#343 = PRODUCT_RELATED_PRODUCT_CATEGORY ( 'detail', '', ( #14 ) ) ;
#344 = APPROVAL_PERSON_ORGANIZATION ( #46, #196, #236 ) ;
#345 = LINE ( 'NONE', #337, #38 ) ;
#346 = VERTEX_POINT ( 'NONE', #66 ) ;
#347 = CARTESIAN_POINT ( 'NONE',  ( 0.0000000000000000000, 0.0000000000000000000, 8.000000000000000000 ) ) ;
#348 = ADVANCED_FACE ( 'NONE', ( #1 ), #369, .T. ) ;
#349 = PERSON_AND_ORGANIZATION_ROLE ( 'design_supplier' ) ;
#350 = APPROVAL_STATUS ( 'not_yet_approved' ) ;
#351 = COORDINATED_UNIVERSAL_TIME_OFFSET ( 1, 0, .AHEAD. ) ;
#352 = DIRECTION ( 'NONE',  ( 0.1039620511844979306, 0.1039620511844979445, -0.9891328443778539814 ) ) ;
#353 = VECTOR ( 'NONE', #306, 1000.000000000000114 ) ;
#354 = ORIENTED_EDGE ( 'NONE', *, *, #137, .T. ) ;
#355 = CARTESIAN_POINT ( 'NONE',  ( -20.50000000000001776, 89.60373217486387887, 0.0000000000000000000 ) ) ;
#356 = EDGE_LOOP ( 'NONE', ( #363, #235, #216, #299 ) ) ;
#357 = DIRECTION ( 'NONE',  ( 0.1039620511844979583, -0.1039620511844979445, -0.9891328443778539814 ) ) ;
#358 = CARTESIAN_POINT ( 'NONE',  ( -17.67012232713802788, -89.58416611787457384, 8.000000000000000000 ) ) ;
#359 = AXIS2_PLACEMENT_3D ( 'NONE', #191, #106, #273 ) ;
#360 = CARTESIAN_POINT ( 'NONE',  ( -19.65916611787459445, 87.59512232713804281, 8.000000000000000000 ) ) ;
#361 = LOCAL_TIME ( 17, 28, 20.00000000000000000, #63 ) ;
#362 = CYLINDRICAL_SURFACE ( 'NONE', #247, 2.000000000000001776 ) ;
#363 = ORIENTED_EDGE ( 'NONE', *, *, #118, .T. ) ;
#364 = DIRECTION ( 'NONE',  ( -1.151046818452954740E-16, 1.000000000000000000, -0.0000000000000000000 ) ) ;
#365 = EDGE_LOOP ( 'NONE', ( #256, #42, #279, #171, #222, #228, #49, #179 ) ) ;
#366 = APPROVAL_DATE_TIME ( #71, #283 ) ;
#367 = CARTESIAN_POINT ( 'NONE',  ( 19.65916611787460155, -87.59512232713805702, 8.000000000000000000 ) ) ;
#368 = ORIENTED_EDGE ( 'NONE', *, *, #139, .F. ) ;
#369 = CYLINDRICAL_SURFACE ( 'NONE', #87, 1.999999999999995115 ) ;
#370 = ORIENTED_EDGE ( 'NONE', *, *, #137, .F. ) ;
#371 = ORGANIZATION ( 'UNSPECIFIED', 'UNSPECIFIED', '' ) ;
#372 = ORIENTED_EDGE ( 'NONE', *, *, #120, .T. ) ;
#373 = ORIENTED_EDGE ( 'NONE', *, *, #107, .F. ) ;
#374 = APPROVAL_PERSON_ORGANIZATION ( #80, #283, #292 ) ;
#375 = FACE_OUTER_BOUND ( 'NONE', #219, .T. ) ;
#376 = ORIENTED_EDGE ( 'NONE', *, *, #163, .T. ) ;
#377 = LINE ( 'NONE', #11, #116 ) ;
ENDSEC;
END-ISO-10303-21;
