ISO-10303-21;
HEADER;
FILE_DESCRIPTION (( 'STEP AP203' ),
    '1' );
FILE_NAME ('80394500d.STEP',
    '2020-08-03T08:54:56',
    ( '' ),
    ( '' ),
    'SwSTEP 2.0',
    'SolidWorks 2018',
    '' );
FILE_SCHEMA (( 'CONFIG_CONTROL_DESIGN' ));
ENDSEC;

DATA;
#1 = ADVANCED_BREP_SHAPE_REPRESENTATION ( '80394500d', ( #285, #25 ), #47 ) ;
#2 = FACE_OUTER_BOUND ( 'NONE', #167, .T. ) ;
#3 = DIRECTION ( 'NONE',  ( -1.000000000000000000, 0.0000000000000000000, 0.0000000000000000000 ) ) ;
#4 = CARTESIAN_POINT ( 'NONE',  ( -5.551115123125782702E-14, 0.0000000000000000000, 5.203360493884656712 ) ) ;
#5 = DIRECTION ( 'NONE',  ( 0.0000000000000000000, 1.000000000000000000, 0.0000000000000000000 ) ) ;
#6 = CARTESIAN_POINT ( 'NONE',  ( 0.0000000000000000000, 0.0000000000000000000, 5.599999999999999645 ) ) ;
#7 = ORIENTED_EDGE ( 'NONE', *, *, #196, .T. ) ;
#8 = DIRECTION ( 'NONE',  ( 0.0000000000000000000, 0.0000000000000000000, 1.000000000000000000 ) ) ;
#9 = CARTESIAN_POINT ( 'NONE',  ( 41.31829464761052861, 0.0000000000000000000, 5.203360493884656712 ) ) ;
#10 = VERTEX_POINT ( 'NONE', #194 ) ;
#11 = DIRECTION ( 'NONE',  ( 1.000000000000000000, 0.0000000000000000000, 0.0000000000000000000 ) ) ;
#12 = DIRECTION ( 'NONE',  ( -0.0000000000000000000, -0.0000000000000000000, 1.000000000000000000 ) ) ;
#13 = ORIENTED_EDGE ( 'NONE', *, *, #328, .F. ) ;
#14 = DIRECTION ( 'NONE',  ( -0.0000000000000000000, -0.0000000000000000000, -1.000000000000000000 ) ) ;
#15 = EDGE_CURVE ( 'NONE', #195, #183, #302, .T. ) ;
#16 = DIRECTION ( 'NONE',  ( -1.000000000000000000, 0.0000000000000000000, 0.0000000000000000000 ) ) ;
#17 = ADVANCED_FACE ( 'NONE', ( #131 ), #60, .T. ) ;
#18 = CARTESIAN_POINT ( 'NONE',  ( 0.0000000000000000000, 0.0000000000000000000, 0.0000000000000000000 ) ) ;
#19 = APPROVAL_PERSON_ORGANIZATION ( #287, #362, #390 ) ;
#20 = AXIS2_PLACEMENT_3D ( 'NONE', #381, #213, #342 ) ;
#21 = CARTESIAN_POINT ( 'NONE',  ( 0.0000000000000000000, 0.0000000000000000000, 10.00000000000000000 ) ) ;
#22 = APPROVAL_STATUS ( 'not_yet_approved' ) ;
#23 = ORIENTED_EDGE ( 'NONE', *, *, #36, .F. ) ;
#24 = EDGE_LOOP ( 'NONE', ( #109, #112, #73, #276 ) ) ;
#25 = AXIS2_PLACEMENT_3D ( 'NONE', #396, #327, #141 ) ;
#26 = CARTESIAN_POINT ( 'NONE',  ( 2.100000000000000089, 2.571758278209441957E-16, 0.0000000000000000000 ) ) ;
#27 = CIRCLE ( 'NONE', #121, 41.31829464761057835 ) ;
#28 = PERSON ( 'UNSPECIFIED', 'UNSPECIFIED', 'UNSPECIFIED', ('UNSPECIFIED'), ('UNSPECIFIED'), ('UNSPECIFIED') ) ;
#29 = COORDINATED_UNIVERSAL_TIME_OFFSET ( 1, 0, .AHEAD. ) ;
#30 = CC_DESIGN_PERSON_AND_ORGANIZATION_ASSIGNMENT ( #105, #78, ( #297 ) ) ;
#31 = FACE_BOUND ( 'NONE', #226, .T. ) ;
#32 = ORIENTED_EDGE ( 'NONE', *, *, #103, .T. ) ;
#33 = ADVANCED_FACE ( 'NONE', ( #235 ), #292, .F. ) ;
#34 = ORIENTED_EDGE ( 'NONE', *, *, #119, .T. ) ;
#35 = AXIS2_PLACEMENT_3D ( 'NONE', #280, #102, #212 ) ;
#36 = EDGE_CURVE ( 'NONE', #75, #139, #266, .T. ) ;
#37 = LOCAL_TIME ( 10, 54, 56.00000000000000000, #122 ) ;
#38 = ORIENTED_EDGE ( 'NONE', *, *, #53, .F. ) ;
#39 = DIRECTION ( 'NONE',  ( -1.000000000000000000, -1.224646799147353454E-16, 0.0000000000000000000 ) ) ;
#40 = CARTESIAN_POINT ( 'NONE',  ( 0.0000000000000000000, 0.0000000000000000000, 0.0000000000000000000 ) ) ;
#41 = AXIS2_PLACEMENT_3D ( 'NONE', #214, #245, #71 ) ;
#42 = PRODUCT_DEFINITION_SHAPE ( 'NONE', 'NONE',  #358 ) ;
#43 = DIRECTION ( 'NONE',  ( -1.000000000000000000, 0.0000000000000000000, 0.0000000000000000000 ) ) ;
#44 = DATE_TIME_ROLE ( 'creation_date' ) ;
#45 = CARTESIAN_POINT ( 'NONE',  ( -3.750000000000000000, 0.0000000000000000000, 15.59999999999999964 ) ) ;
#46 = LINE ( 'NONE', #374, #389 ) ;
#47 =( GEOMETRIC_REPRESENTATION_CONTEXT ( 3 ) GLOBAL_UNCERTAINTY_ASSIGNED_CONTEXT ( ( #252 ) ) GLOBAL_UNIT_ASSIGNED_CONTEXT ( ( #296, #228, #171 ) ) REPRESENTATION_CONTEXT ( 'NONE', 'WORKASPACE' ) );
#48 = CARTESIAN_POINT ( 'NONE',  ( 0.0000000000000000000, 0.0000000000000000000, 5.599999999999999645 ) ) ;
#49 = DATE_AND_TIME ( #200, #393 ) ;
#50 = APPLICATION_PROTOCOL_DEFINITION ( 'international standard', 'config_control_design', 1994, #395 ) ;
#51 = CC_DESIGN_APPROVAL ( #362, ( #297 ) ) ;
#52 = ORIENTED_EDGE ( 'NONE', *, *, #59, .F. ) ;
#53 = EDGE_CURVE ( 'NONE', #118, #386, #367, .T. ) ;
#54 = FACE_OUTER_BOUND ( 'NONE', #24, .T. ) ;
#55 = PERSON_AND_ORGANIZATION_ROLE ( 'design_owner' ) ;
#56 = ORIENTED_EDGE ( 'NONE', *, *, #149, .T. ) ;
#57 = CIRCLE ( 'NONE', #401, 3.750000000000000000 ) ;
#58 = ORGANIZATION ( 'UNSPECIFIED', 'UNSPECIFIED', '' ) ;
#59 = EDGE_CURVE ( 'NONE', #10, #256, #199, .T. ) ;
#60 = TOROIDAL_SURFACE ( 'NONE', #353, 40.31890382059149402, 1.000000000000000000 ) ;
#61 = AXIS2_PLACEMENT_3D ( 'NONE', #277, #8, #380 ) ;
#62 = CALENDAR_DATE ( 2020, 3, 8 ) ;
#63 = ORIENTED_EDGE ( 'NONE', *, *, #196, .F. ) ;
#64 = CARTESIAN_POINT ( 'NONE',  ( 3.750000000000000000, 2.703389637015399986E-15, 7.785937302240530933 ) ) ;
#65 = DIRECTION ( 'NONE',  ( -0.0000000000000000000, -0.0000000000000000000, -1.000000000000000000 ) ) ;
#66 = CC_DESIGN_DATE_AND_TIME_ASSIGNMENT ( #385, #44, ( #358 ) ) ;
#67 = PERSON_AND_ORGANIZATION ( #28, #58 ) ;
#68 = ORIENTED_EDGE ( 'NONE', *, *, #116, .T. ) ;
#69 = CARTESIAN_POINT ( 'NONE',  ( -41.50000000000000000, -5.082284216461515748E-15, 0.0000000000000000000 ) ) ;
#70 = ORIENTED_EDGE ( 'NONE', *, *, #135, .F. ) ;
#71 = DIRECTION ( 'NONE',  ( -1.000000000000000000, -1.224646799147349509E-16, 0.0000000000000000000 ) ) ;
#72 = DIRECTION ( 'NONE',  ( -0.0000000000000000000, -0.0000000000000000000, -1.000000000000000000 ) ) ;
#73 = ORIENTED_EDGE ( 'NONE', *, *, #288, .T. ) ;
#74 = CIRCLE ( 'NONE', #177, 3.750000000000000000 ) ;
#75 = VERTEX_POINT ( 'NONE', #318 ) ;
#76 = EDGE_CURVE ( 'NONE', #264, #117, #162, .T. ) ;
#77 = AXIS2_PLACEMENT_3D ( 'NONE', #377, #208, #270 ) ;
#78 = PERSON_AND_ORGANIZATION_ROLE ( 'classification_officer' ) ;
#79 = APPROVAL_PERSON_ORGANIZATION ( #178, #403, #223 ) ;
#80 = ORIENTED_EDGE ( 'NONE', *, *, #366, .T. ) ;
#81 = ORIENTED_EDGE ( 'NONE', *, *, #142, .T. ) ;
#82 = AXIS2_PLACEMENT_3D ( 'NONE', #306, #5, #209 ) ;
#83 = PRODUCT ( '80394500d', '80394500d', '', ( #260 ) ) ;
#84 = CC_DESIGN_APPROVAL ( #403, ( #321 ) ) ;
#85 = CIRCLE ( 'NONE', #324, 499.9999999999999432 ) ;
#86 = CIRCLE ( 'NONE', #293, 499.9999999999999432 ) ;
#87 = ORIENTED_EDGE ( 'NONE', *, *, #124, .F. ) ;
#88 = ORIENTED_EDGE ( 'NONE', *, *, #366, .F. ) ;
#89 = ADVANCED_FACE ( 'NONE', ( #144 ), #279, .F. ) ;
#90 = EDGE_LOOP ( 'NONE', ( #388, #56, #81, #126 ) ) ;
#91 = DIRECTION ( 'NONE',  ( 0.0000000000000000000, -1.000000000000000000, 0.0000000000000000000 ) ) ;
#92 = CARTESIAN_POINT ( 'NONE',  ( 0.0000000000000000000, 0.0000000000000000000, 7.785937302240530933 ) ) ;
#93 = DIRECTION ( 'NONE',  ( 0.0000000000000000000, -1.000000000000000000, 0.0000000000000000000 ) ) ;
#94 = ORIENTED_EDGE ( 'NONE', *, *, #328, .T. ) ;
#95 = AXIS2_PLACEMENT_3D ( 'NONE', #125, #204, #373 ) ;
#96 = ORIENTED_EDGE ( 'NONE', *, *, #103, .F. ) ;
#97 = EDGE_LOOP ( 'NONE', ( #316, #32, #400, #169 ) ) ;
#98 = ADVANCED_FACE ( 'NONE', ( #54 ), #120, .T. ) ;
#99 = DIRECTION ( 'NONE',  ( -1.000000000000000000, 0.0000000000000000000, 0.0000000000000000000 ) ) ;
#100 = CC_DESIGN_PERSON_AND_ORGANIZATION_ASSIGNMENT ( #361, #55, ( #83 ) ) ;
#101 = FACE_OUTER_BOUND ( 'NONE', #325, .T. ) ;
#102 = DIRECTION ( 'NONE',  ( -0.0000000000000000000, -0.0000000000000000000, 1.000000000000000000 ) ) ;
#103 = EDGE_CURVE ( 'NONE', #139, #386, #46, .T. ) ;
#104 = APPROVAL_ROLE ( '' ) ;
#105 = PERSON_AND_ORGANIZATION ( #28, #58 ) ;
#106 = CIRCLE ( 'NONE', #263, 1.000000000000000000 ) ;
#107 = CC_DESIGN_SECURITY_CLASSIFICATION ( #297, ( #321 ) ) ;
#108 = CARTESIAN_POINT ( 'NONE',  ( -40.39970322704589734, 0.0000000000000000000, 6.165191379942369210 ) ) ;
#109 = ORIENTED_EDGE ( 'NONE', *, *, #149, .F. ) ;
#110 = DIRECTION ( 'NONE',  ( -0.0000000000000000000, -0.0000000000000000000, -1.000000000000000000 ) ) ;
#111 = EDGE_LOOP ( 'NONE', ( #159, #94, #322, #174 ) ) ;
#112 = ORIENTED_EDGE ( 'NONE', *, *, #76, .T. ) ;
#113 = CIRCLE ( 'NONE', #35, 2.100000000000000089 ) ;
#114 = APPROVAL_DATE_TIME ( #134, #403 ) ;
#115 = LINE ( 'NONE', #242, #251 ) ;
#116 = EDGE_CURVE ( 'NONE', #205, #10, #216, .T. ) ;
#117 = VERTEX_POINT ( 'NONE', #9 ) ;
#118 = VERTEX_POINT ( 'NONE', #339 ) ;
#119 = EDGE_CURVE ( 'NONE', #183, #117, #258, .T. ) ;
#120 = CONICAL_SURFACE ( 'NONE', #301, 41.50000000000000000, 0.03490658503988666728 ) ;
#121 = AXIS2_PLACEMENT_3D ( 'NONE', #378, #247, #343 ) ;
#122 = COORDINATED_UNIVERSAL_TIME_OFFSET ( 1, 0, .AHEAD. ) ;
#123 = DIRECTION ( 'NONE',  ( 0.0000000000000000000, 0.0000000000000000000, 1.000000000000000000 ) ) ;
#124 = EDGE_CURVE ( 'NONE', #386, #118, #137, .T. ) ;
#125 = CARTESIAN_POINT ( 'NONE',  ( -5.551115123125782702E-14, 0.0000000000000000000, 5.168460997182156014 ) ) ;
#126 = ORIENTED_EDGE ( 'NONE', *, *, #288, .F. ) ;
#127 = CARTESIAN_POINT ( 'NONE',  ( -41.50000000000000000, -5.082284216461515748E-15, 0.0000000000000000000 ) ) ;
#128 = EDGE_CURVE ( 'NONE', #256, #331, #188, .T. ) ;
#129 = CARTESIAN_POINT ( 'NONE',  ( 41.50000000000000000, 0.0000000000000000000, 0.0000000000000000000 ) ) ;
#130 = CARTESIAN_POINT ( 'NONE',  ( 0.0000000000000000000, 0.0000000000000000000, 15.59999999999999964 ) ) ;
#131 = FACE_OUTER_BOUND ( 'NONE', #132, .T. ) ;
#132 = EDGE_LOOP ( 'NONE', ( #243, #265, #7, #286 ) ) ;
#133 = SPHERICAL_SURFACE ( 'NONE', #379, 500.0000000000000000 ) ;
#134 = DATE_AND_TIME ( #62, #37 ) ;
#135 = EDGE_CURVE ( 'NONE', #139, #75, #113, .T. ) ;
#136 = DATE_TIME_ROLE ( 'classification_date' ) ;
#137 = CIRCLE ( 'NONE', #392, 2.100000000000000089 ) ;
#138 = APPLICATION_PROTOCOL_DEFINITION ( 'international standard', 'config_control_design', 1994, #360 ) ;
#139 = VERTEX_POINT ( 'NONE', #244 ) ;
#140 = AXIS2_PLACEMENT_3D ( 'NONE', #130, #14, #218 ) ;
#141 = DIRECTION ( 'NONE',  ( 1.000000000000000000, 0.0000000000000000000, 0.0000000000000000000 ) ) ;
#142 = EDGE_CURVE ( 'NONE', #314, #255, #300, .T. ) ;
#143 = EDGE_LOOP ( 'NONE', ( #225, #283 ) ) ;
#144 = FACE_OUTER_BOUND ( 'NONE', #344, .T. ) ;
#145 = ADVANCED_FACE ( 'NONE', ( #176 ), #179, .T. ) ;
#146 = CALENDAR_DATE ( 2020, 3, 8 ) ;
#147 = ORIENTED_EDGE ( 'NONE', *, *, #135, .T. ) ;
#148 = CARTESIAN_POINT ( 'NONE',  ( -40.31890382059155087, 0.0000000000000000000, 5.168460997182156014 ) ) ;
#149 = EDGE_CURVE ( 'NONE', #264, #314, #284, .T. ) ;
#150 = CARTESIAN_POINT ( 'NONE',  ( -5.551115123125782702E-14, 0.0000000000000000000, -492.2000000000000455 ) ) ;
#151 = DIRECTION ( 'NONE',  ( 0.0000000000000000000, 0.0000000000000000000, 1.000000000000000000 ) ) ;
#152 = COORDINATED_UNIVERSAL_TIME_OFFSET ( 1, 0, .AHEAD. ) ;
#153 = TOROIDAL_SURFACE ( 'NONE', #95, 40.31890382059149402, 1.000000000000000000 ) ;
#154 = PLANE ( 'NONE',  #61 ) ;
#155 = EDGE_LOOP ( 'NONE', ( #38, #87 ) ) ;
#156 = CARTESIAN_POINT ( 'NONE',  ( 0.0000000000000000000, 0.0000000000000000000, 0.0000000000000000000 ) ) ;
#157 = AXIS2_PLACEMENT_3D ( 'NONE', #198, #354, #291 ) ;
#158 = CARTESIAN_POINT ( 'NONE',  ( 0.0000000000000000000, 0.0000000000000000000, 5.599999999999999645 ) ) ;
#159 = ORIENTED_EDGE ( 'NONE', *, *, #116, .F. ) ;
#160 = DIRECTION ( 'NONE',  ( -1.000000000000000000, 0.0000000000000000000, 0.0000000000000000000 ) ) ;
#161 = APPROVAL ( #384, 'UNSPECIFIED' ) ;
#162 = CIRCLE ( 'NONE', #232, 41.31829464761057835 ) ;
#163 = DIRECTION ( 'NONE',  ( 1.000000000000000000, 0.0000000000000000000, 0.0000000000000000000 ) ) ;
#164 = CYLINDRICAL_SURFACE ( 'NONE', #330, 2.100000000000000089 ) ;
#165 = EDGE_CURVE ( 'NONE', #10, #195, #85, .T. ) ;
#166 = SPHERICAL_SURFACE ( 'NONE', #82, 500.0000000000000000 ) ;
#167 = EDGE_LOOP ( 'NONE', ( #96, #147, #303, #231 ) ) ;
#168 = APPROVAL_DATE_TIME ( #376, #161 ) ;
#169 = ORIENTED_EDGE ( 'NONE', *, *, #334, .F. ) ;
#170 = ORIENTED_EDGE ( 'NONE', *, *, #76, .F. ) ;
#171 =( NAMED_UNIT ( * ) SI_UNIT ( $, .STERADIAN. ) SOLID_ANGLE_UNIT ( ) );
#172 = ORIENTED_EDGE ( 'NONE', *, *, #184, .F. ) ;
#173 = AXIS2_PLACEMENT_3D ( 'NONE', #348, #187, #160 ) ;
#174 = ORIENTED_EDGE ( 'NONE', *, *, #165, .F. ) ;
#175 = ADVANCED_FACE ( 'NONE', ( #329, #31 ), #246, .F. ) ;
#176 = FACE_OUTER_BOUND ( 'NONE', #90, .T. ) ;
#177 = AXIS2_PLACEMENT_3D ( 'NONE', #92, #151, #237 ) ;
#178 = PERSON_AND_ORGANIZATION ( #28, #58 ) ;
#179 = CONICAL_SURFACE ( 'NONE', #278, 41.50000000000000000, 0.03490658503988666728 ) ;
#180 = DIRECTION ( 'NONE',  ( -0.0000000000000000000, -0.0000000000000000000, -1.000000000000000000 ) ) ;
#181 = DIRECTION ( 'NONE',  ( -0.0000000000000000000, -0.0000000000000000000, -1.000000000000000000 ) ) ;
#182 = VECTOR ( 'NONE', #382, 1000.000000000000000 ) ;
#183 = VERTEX_POINT ( 'NONE', #273 ) ;
#184 = EDGE_CURVE ( 'NONE', #255, #314, #308, .T. ) ;
#185 = CARTESIAN_POINT ( 'NONE',  ( 3.750000000000000000, 4.592425496802573972E-16, 5.599999999999999645 ) ) ;
#186 = DIRECTION ( 'NONE',  ( -0.0000000000000000000, -0.0000000000000000000, -1.000000000000000000 ) ) ;
#187 = DIRECTION ( 'NONE',  ( 0.0000000000000000000, 0.0000000000000000000, -1.000000000000000000 ) ) ;
#188 = CIRCLE ( 'NONE', #312, 3.750000000000000000 ) ;
#189 = CARTESIAN_POINT ( 'NONE',  ( -5.551115123125782702E-14, 0.0000000000000000000, -492.2000000000000455 ) ) ;
#190 = CARTESIAN_POINT ( 'NONE',  ( 0.0000000000000000000, 0.0000000000000000000, 0.0000000000000000000 ) ) ;
#191 = COORDINATED_UNIVERSAL_TIME_OFFSET ( 1, 0, .AHEAD. ) ;
#192 = LINE ( 'NONE', #346, #262 ) ;
#193 = ORIENTED_EDGE ( 'NONE', *, *, #128, .T. ) ;
#194 = CARTESIAN_POINT ( 'NONE',  ( -3.750000000000000000, 0.0000000000000000000, 7.785937302240530933 ) ) ;
#195 = VERTEX_POINT ( 'NONE', #108 ) ;
#196 = EDGE_CURVE ( 'NONE', #195, #264, #106, .T. ) ;
#197 = EDGE_CURVE ( 'NONE', #183, #195, #336, .T. ) ;
#198 = CARTESIAN_POINT ( 'NONE',  ( -5.551115123125782702E-14, 0.0000000000000000000, 6.165191379942369210 ) ) ;
#199 = LINE ( 'NONE', #45, #349 ) ;
#200 = CALENDAR_DATE ( 2020, 3, 8 ) ;
#201 = ADVANCED_FACE ( 'NONE', ( #238 ), #133, .T. ) ;
#202 = DESIGN_CONTEXT ( 'detailed design', #395, 'design' ) ;
#203 = ADVANCED_FACE ( 'NONE', ( #2 ), #164, .F. ) ;
#204 = DIRECTION ( 'NONE',  ( -0.0000000000000000000, -0.0000000000000000000, -1.000000000000000000 ) ) ;
#205 = VERTEX_POINT ( 'NONE', #64 ) ;
#206 = PRODUCT_RELATED_PRODUCT_CATEGORY ( 'detail', '', ( #83 ) ) ;
#207 = DIRECTION ( 'NONE',  ( -1.000000000000000000, 0.0000000000000000000, 0.0000000000000000000 ) ) ;
#208 = DIRECTION ( 'NONE',  ( -0.0000000000000000000, -0.0000000000000000000, -1.000000000000000000 ) ) ;
#209 = DIRECTION ( 'NONE',  ( -1.000000000000000000, 0.0000000000000000000, 0.0000000000000000000 ) ) ;
#210 = APPROVAL_DATE_TIME ( #315, #362 ) ;
#211 = CARTESIAN_POINT ( 'NONE',  ( -5.551115123125782702E-14, 0.0000000000000000000, -492.2000000000000455 ) ) ;
#212 = DIRECTION ( 'NONE',  ( -1.000000000000000000, 0.0000000000000000000, 0.0000000000000000000 ) ) ;
#213 = DIRECTION ( 'NONE',  ( 0.0000000000000000000, 0.0000000000000000000, 1.000000000000000000 ) ) ;
#214 = CARTESIAN_POINT ( 'NONE',  ( 40.31890382059143718, 4.937641650901735858E-15, 5.168460997182156014 ) ) ;
#215 = AXIS2_PLACEMENT_3D ( 'NONE', #21, #254, #323 ) ;
#216 = CIRCLE ( 'NONE', #20, 3.750000000000000000 ) ;
#217 = DIRECTION ( 'NONE',  ( 0.0000000000000000000, 0.0000000000000000000, 1.000000000000000000 ) ) ;
#218 = DIRECTION ( 'NONE',  ( -1.000000000000000000, 0.0000000000000000000, 0.0000000000000000000 ) ) ;
#219 = PERSON_AND_ORGANIZATION_ROLE ( 'creator' ) ;
#220 = AXIS2_PLACEMENT_3D ( 'NONE', #250, #352, #163 ) ;
#221 = DIRECTION ( 'NONE',  ( -1.000000000000000000, 0.0000000000000000000, 0.0000000000000000000 ) ) ;
#222 = ORIENTED_EDGE ( 'NONE', *, *, #165, .T. ) ;
#223 = APPROVAL_ROLE ( '' ) ;
#224 = SHAPE_DEFINITION_REPRESENTATION ( #42, #1 ) ;
#225 = ORIENTED_EDGE ( 'NONE', *, *, #128, .F. ) ;
#226 = EDGE_LOOP ( 'NONE', ( #23, #70 ) ) ;
#227 = CC_DESIGN_APPROVAL ( #161, ( #358 ) ) ;
#228 =( NAMED_UNIT ( * ) PLANE_ANGLE_UNIT ( ) SI_UNIT ( $, .RADIAN. ) );
#229 = FACE_OUTER_BOUND ( 'NONE', #326, .T. ) ;
#230 = ADVANCED_FACE ( 'NONE', ( #229 ), #153, .T. ) ;
#231 = ORIENTED_EDGE ( 'NONE', *, *, #53, .T. ) ;
#232 = AXIS2_PLACEMENT_3D ( 'NONE', #4, #181, #43 ) ;
#233 = ADVANCED_FACE ( 'NONE', ( #398, #269 ), #154, .F. ) ;
#234 = ORIENTED_EDGE ( 'NONE', *, *, #310, .F. ) ;
#235 = FACE_OUTER_BOUND ( 'NONE', #97, .T. ) ;
#236 = DIRECTION ( 'NONE',  ( 0.0000000000000000000, 0.0000000000000000000, -1.000000000000000000 ) ) ;
#237 = DIRECTION ( 'NONE',  ( -1.000000000000000000, 0.0000000000000000000, 0.0000000000000000000 ) ) ;
#238 = FACE_OUTER_BOUND ( 'NONE', #111, .T. ) ;
#239 = LINE ( 'NONE', #320, #182 ) ;
#240 = DIRECTION ( 'NONE',  ( -0.03489949670250104552, -4.273955692857151045E-18, -0.9993908270190956511 ) ) ;
#241 = AXIS2_PLACEMENT_3D ( 'NONE', #48, #317, #248 ) ;
#242 = CARTESIAN_POINT ( 'NONE',  ( 41.50000000000000000, 0.0000000000000000000, 0.0000000000000000000 ) ) ;
#243 = ORIENTED_EDGE ( 'NONE', *, *, #119, .F. ) ;
#244 = CARTESIAN_POINT ( 'NONE',  ( 2.100000000000000089, 2.571758278209441957E-16, 5.599999999999999645 ) ) ;
#245 = DIRECTION ( 'NONE',  ( -1.224646799147353207E-16, 1.000000000000000000, 0.0000000000000000000 ) ) ;
#246 = PLANE ( 'NONE',  #241 ) ;
#247 = DIRECTION ( 'NONE',  ( -0.0000000000000000000, -0.0000000000000000000, -1.000000000000000000 ) ) ;
#248 = DIRECTION ( 'NONE',  ( -1.000000000000000000, 0.0000000000000000000, -0.0000000000000000000 ) ) ;
#249 = CC_DESIGN_PERSON_AND_ORGANIZATION_ASSIGNMENT ( #267, #357, ( #321 ) ) ;
#250 = CARTESIAN_POINT ( 'NONE',  ( 0.0000000000000000000, 0.0000000000000000000, 0.0000000000000000000 ) ) ;
#251 = VECTOR ( 'NONE', #274, 1000.000000000000114 ) ;
#252 = UNCERTAINTY_MEASURE_WITH_UNIT (LENGTH_MEASURE( 1.000000000000000082E-05 ), #296, 'distance_accuracy_value', 'NONE');
#253 = CYLINDRICAL_SURFACE ( 'NONE', #140, 3.750000000000000000 ) ;
#254 = DIRECTION ( 'NONE',  ( -0.0000000000000000000, -0.0000000000000000000, -1.000000000000000000 ) ) ;
#255 = VERTEX_POINT ( 'NONE', #129 ) ;
#256 = VERTEX_POINT ( 'NONE', #313 ) ;
#257 = AXIS2_PLACEMENT_3D ( 'NONE', #18, #217, #341 ) ;
#258 = CIRCLE ( 'NONE', #41, 1.000000000000000888 ) ;
#259 = EDGE_CURVE ( 'NONE', #331, #256, #57, .T. ) ;
#260 = MECHANICAL_CONTEXT ( 'NONE', #360, 'mechanical' ) ;
#261 = CALENDAR_DATE ( 2020, 3, 8 ) ;
#262 = VECTOR ( 'NONE', #72, 1000.000000000000000 ) ;
#263 = AXIS2_PLACEMENT_3D ( 'NONE', #148, #91, #236 ) ;
#264 = VERTEX_POINT ( 'NONE', #340 ) ;
#265 = ORIENTED_EDGE ( 'NONE', *, *, #15, .F. ) ;
#266 = CIRCLE ( 'NONE', #347, 2.100000000000000089 ) ;
#267 = PERSON_AND_ORGANIZATION ( #28, #58 ) ;
#268 = CC_DESIGN_PERSON_AND_ORGANIZATION_ASSIGNMENT ( #397, #219, ( #358 ) ) ;
#269 = FACE_OUTER_BOUND ( 'NONE', #299, .T. ) ;
#270 = DIRECTION ( 'NONE',  ( -1.000000000000000000, 0.0000000000000000000, 0.0000000000000000000 ) ) ;
#271 = ORIENTED_EDGE ( 'NONE', *, *, #310, .T. ) ;
#272 = DIRECTION ( 'NONE',  ( -1.224646799147353207E-16, 1.000000000000000000, 0.0000000000000000000 ) ) ;
#273 = CARTESIAN_POINT ( 'NONE',  ( 40.39970322704578365, 4.947536724350469013E-15, 6.165191379942369210 ) ) ;
#274 = DIRECTION ( 'NONE',  ( 0.03489949670250104552, 0.0000000000000000000, -0.9993908270190956511 ) ) ;
#275 = DIRECTION ( 'NONE',  ( -0.0000000000000000000, -0.0000000000000000000, -1.000000000000000000 ) ) ;
#276 = ORIENTED_EDGE ( 'NONE', *, *, #184, .T. ) ;
#277 = CARTESIAN_POINT ( 'NONE',  ( 0.0000000000000000000, 0.0000000000000000000, 0.0000000000000000000 ) ) ;
#278 = AXIS2_PLACEMENT_3D ( 'NONE', #190, #275, #11 ) ;
#279 = CYLINDRICAL_SURFACE ( 'NONE', #77, 3.750000000000000000 ) ;
#280 = CARTESIAN_POINT ( 'NONE',  ( 0.0000000000000000000, 0.0000000000000000000, 5.599999999999999645 ) ) ;
#281 = DIRECTION ( 'NONE',  ( -0.0000000000000000000, -0.0000000000000000000, -1.000000000000000000 ) ) ;
#282 = CALENDAR_DATE ( 2020, 3, 8 ) ;
#283 = ORIENTED_EDGE ( 'NONE', *, *, #259, .F. ) ;
#284 = LINE ( 'NONE', #69, #370 ) ;
#285 = MANIFOLD_SOLID_BREP ( 'Schnitt-Linear austragen2', #295 ) ;
#286 = ORIENTED_EDGE ( 'NONE', *, *, #359, .F. ) ;
#287 = PERSON_AND_ORGANIZATION ( #28, #58 ) ;
#288 = EDGE_CURVE ( 'NONE', #117, #255, #115, .T. ) ;
#289 = AXIS2_PLACEMENT_3D ( 'NONE', #304, #123, #305 ) ;
#290 = PERSON_AND_ORGANIZATION_ROLE ( 'creator' ) ;
#291 = DIRECTION ( 'NONE',  ( -1.000000000000000000, 0.0000000000000000000, 0.0000000000000000000 ) ) ;
#292 = CYLINDRICAL_SURFACE ( 'NONE', #215, 2.100000000000000089 ) ;
#293 = AXIS2_PLACEMENT_3D ( 'NONE', #211, #272, #39 ) ;
#294 = PERSON_AND_ORGANIZATION ( #28, #58 ) ;
#295 = CLOSED_SHELL ( 'NONE', ( #364, #33, #230, #201, #145, #98, #233, #333, #17, #203, #175, #89 ) ) ;
#296 =( LENGTH_UNIT ( ) NAMED_UNIT ( * ) SI_UNIT ( .MILLI., .METRE. ) );
#297 = SECURITY_CLASSIFICATION ( '', '', #391 ) ;
#298 = LOCAL_TIME ( 10, 54, 56.00000000000000000, #29 ) ;
#299 = EDGE_LOOP ( 'NONE', ( #172, #319 ) ) ;
#300 = CIRCLE ( 'NONE', #257, 41.50000000000000000 ) ;
#301 = AXIS2_PLACEMENT_3D ( 'NONE', #40, #65, #311 ) ;
#302 = CIRCLE ( 'NONE', #157, 40.39970322704561312 ) ;
#303 = ORIENTED_EDGE ( 'NONE', *, *, #334, .T. ) ;
#304 = CARTESIAN_POINT ( 'NONE',  ( -5.551115123125782702E-14, 0.0000000000000000000, 6.165191379942369210 ) ) ;
#305 = DIRECTION ( 'NONE',  ( -1.000000000000000000, 0.0000000000000000000, 0.0000000000000000000 ) ) ;
#306 = CARTESIAN_POINT ( 'NONE',  ( -5.551115123125782702E-14, 0.0000000000000000000, -492.2000000000000455 ) ) ;
#307 = COORDINATED_UNIVERSAL_TIME_OFFSET ( 1, 0, .AHEAD. ) ;
#308 = CIRCLE ( 'NONE', #220, 41.50000000000000000 ) ;
#309 = DIRECTION ( 'NONE',  ( 0.0000000000000000000, 0.0000000000000000000, -1.000000000000000000 ) ) ;
#310 = EDGE_CURVE ( 'NONE', #10, #205, #74, .T. ) ;
#311 = DIRECTION ( 'NONE',  ( 1.000000000000000000, 0.0000000000000000000, 0.0000000000000000000 ) ) ;
#312 = AXIS2_PLACEMENT_3D ( 'NONE', #6, #345, #350 ) ;
#313 = CARTESIAN_POINT ( 'NONE',  ( -3.750000000000000000, 0.0000000000000000000, 5.599999999999999645 ) ) ;
#314 = VERTEX_POINT ( 'NONE', #127 ) ;
#315 = DATE_AND_TIME ( #146, #298 ) ;
#316 = ORIENTED_EDGE ( 'NONE', *, *, #36, .T. ) ;
#317 = DIRECTION ( 'NONE',  ( 0.0000000000000000000, 0.0000000000000000000, -1.000000000000000000 ) ) ;
#318 = CARTESIAN_POINT ( 'NONE',  ( -2.100000000000000089, 0.0000000000000000000, 5.599999999999999645 ) ) ;
#319 = ORIENTED_EDGE ( 'NONE', *, *, #142, .F. ) ;
#320 = CARTESIAN_POINT ( 'NONE',  ( -2.100000000000000089, 0.0000000000000000000, 10.00000000000000000 ) ) ;
#321 = PRODUCT_DEFINITION_FORMATION_WITH_SPECIFIED_SOURCE ( 'ANY', '', #83, .NOT_KNOWN. ) ;
#322 = ORIENTED_EDGE ( 'NONE', *, *, #197, .T. ) ;
#323 = DIRECTION ( 'NONE',  ( -1.000000000000000000, 0.0000000000000000000, 0.0000000000000000000 ) ) ;
#324 = AXIS2_PLACEMENT_3D ( 'NONE', #189, #93, #309 ) ;
#325 = EDGE_LOOP ( 'NONE', ( #271, #80, #355, #52 ) ) ;
#326 = EDGE_LOOP ( 'NONE', ( #332, #34, #170, #63 ) ) ;
#327 = DIRECTION ( 'NONE',  ( 0.0000000000000000000, 0.0000000000000000000, 1.000000000000000000 ) ) ;
#328 = EDGE_CURVE ( 'NONE', #205, #183, #86, .T. ) ;
#329 = FACE_OUTER_BOUND ( 'NONE', #143, .T. ) ;
#330 = AXIS2_PLACEMENT_3D ( 'NONE', #371, #180, #207 ) ;
#331 = VERTEX_POINT ( 'NONE', #185 ) ;
#332 = ORIENTED_EDGE ( 'NONE', *, *, #197, .F. ) ;
#333 = ADVANCED_FACE ( 'NONE', ( #337 ), #166, .T. ) ;
#334 = EDGE_CURVE ( 'NONE', #75, #118, #239, .T. ) ;
#335 = CC_DESIGN_DATE_AND_TIME_ASSIGNMENT ( #49, #136, ( #297 ) ) ;
#336 = CIRCLE ( 'NONE', #289, 40.39970322704561312 ) ;
#337 = FACE_OUTER_BOUND ( 'NONE', #394, .T. ) ;
#338 = CARTESIAN_POINT ( 'NONE',  ( 0.0000000000000000000, 0.0000000000000000000, 5.599999999999999645 ) ) ;
#339 = CARTESIAN_POINT ( 'NONE',  ( -2.100000000000000089, 0.0000000000000000000, 0.0000000000000000000 ) ) ;
#340 = CARTESIAN_POINT ( 'NONE',  ( -41.31829464761063520, -5.071157972551937932E-15, 5.203360493884656712 ) ) ;
#341 = DIRECTION ( 'NONE',  ( 1.000000000000000000, 0.0000000000000000000, 0.0000000000000000000 ) ) ;
#342 = DIRECTION ( 'NONE',  ( -1.000000000000000000, 0.0000000000000000000, 0.0000000000000000000 ) ) ;
#343 = DIRECTION ( 'NONE',  ( -1.000000000000000000, 0.0000000000000000000, 0.0000000000000000000 ) ) ;
#344 = EDGE_LOOP ( 'NONE', ( #88, #68, #365, #193 ) ) ;
#345 = DIRECTION ( 'NONE',  ( 0.0000000000000000000, 0.0000000000000000000, -1.000000000000000000 ) ) ;
#346 = CARTESIAN_POINT ( 'NONE',  ( 3.750000000000000000, 4.592425496802573972E-16, 15.59999999999999964 ) ) ;
#347 = AXIS2_PLACEMENT_3D ( 'NONE', #158, #12, #16 ) ;
#348 = CARTESIAN_POINT ( 'NONE',  ( 0.0000000000000000000, 0.0000000000000000000, 0.0000000000000000000 ) ) ;
#349 = VECTOR ( 'NONE', #281, 1000.000000000000000 ) ;
#350 = DIRECTION ( 'NONE',  ( -1.000000000000000000, 0.0000000000000000000, 0.0000000000000000000 ) ) ;
#351 = LOCAL_TIME ( 10, 54, 56.00000000000000000, #152 ) ;
#352 = DIRECTION ( 'NONE',  ( 0.0000000000000000000, 0.0000000000000000000, 1.000000000000000000 ) ) ;
#353 = AXIS2_PLACEMENT_3D ( 'NONE', #387, #110, #221 ) ;
#354 = DIRECTION ( 'NONE',  ( 0.0000000000000000000, 0.0000000000000000000, 1.000000000000000000 ) ) ;
#355 = ORIENTED_EDGE ( 'NONE', *, *, #259, .T. ) ;
#356 = APPROVAL_STATUS ( 'not_yet_approved' ) ;
#357 = PERSON_AND_ORGANIZATION_ROLE ( 'design_supplier' ) ;
#358 = PRODUCT_DEFINITION ( 'UNKNOWN', '', #321, #202 ) ;
#359 = EDGE_CURVE ( 'NONE', #117, #264, #27, .T. ) ;
#360 = APPLICATION_CONTEXT ( 'configuration controlled 3d designs of mechanical parts and assemblies' ) ;
#361 = PERSON_AND_ORGANIZATION ( #28, #58 ) ;
#362 = APPROVAL ( #356, 'UNSPECIFIED' ) ;
#363 = ORIENTED_EDGE ( 'NONE', *, *, #15, .T. ) ;
#364 = ADVANCED_FACE ( 'NONE', ( #101 ), #253, .F. ) ;
#365 = ORIENTED_EDGE ( 'NONE', *, *, #59, .T. ) ;
#366 = EDGE_CURVE ( 'NONE', #205, #331, #192, .T. ) ;
#367 = CIRCLE ( 'NONE', #173, 2.100000000000000089 ) ;
#368 = DIRECTION ( 'NONE',  ( 0.0000000000000000000, 0.0000000000000000000, -1.000000000000000000 ) ) ;
#369 = APPROVAL_PERSON_ORGANIZATION ( #67, #161, #104 ) ;
#370 = VECTOR ( 'NONE', #240, 1000.000000000000114 ) ;
#371 = CARTESIAN_POINT ( 'NONE',  ( 0.0000000000000000000, 0.0000000000000000000, 10.00000000000000000 ) ) ;
#372 = DIRECTION ( 'NONE',  ( 0.0000000000000000000, 0.0000000000000000000, -1.000000000000000000 ) ) ;
#373 = DIRECTION ( 'NONE',  ( -1.000000000000000000, 0.0000000000000000000, 0.0000000000000000000 ) ) ;
#374 = CARTESIAN_POINT ( 'NONE',  ( 2.100000000000000089, 2.571758278209441957E-16, 10.00000000000000000 ) ) ;
#375 = DIRECTION ( 'NONE',  ( 0.0000000000000000000, 1.000000000000000000, 0.0000000000000000000 ) ) ;
#376 = DATE_AND_TIME ( #282, #351 ) ;
#377 = CARTESIAN_POINT ( 'NONE',  ( 0.0000000000000000000, 0.0000000000000000000, 15.59999999999999964 ) ) ;
#378 = CARTESIAN_POINT ( 'NONE',  ( -5.551115123125782702E-14, 0.0000000000000000000, 5.203360493884656712 ) ) ;
#379 = AXIS2_PLACEMENT_3D ( 'NONE', #150, #375, #402 ) ;
#380 = DIRECTION ( 'NONE',  ( 1.000000000000000000, 0.0000000000000000000, -0.0000000000000000000 ) ) ;
#381 = CARTESIAN_POINT ( 'NONE',  ( 0.0000000000000000000, 0.0000000000000000000, 7.785937302240530933 ) ) ;
#382 = DIRECTION ( 'NONE',  ( -0.0000000000000000000, -0.0000000000000000000, -1.000000000000000000 ) ) ;
#383 = CC_DESIGN_PERSON_AND_ORGANIZATION_ASSIGNMENT ( #294, #290, ( #321 ) ) ;
#384 = APPROVAL_STATUS ( 'not_yet_approved' ) ;
#385 = DATE_AND_TIME ( #261, #399 ) ;
#386 = VERTEX_POINT ( 'NONE', #26 ) ;
#387 = CARTESIAN_POINT ( 'NONE',  ( -5.551115123125782702E-14, 0.0000000000000000000, 5.168460997182156014 ) ) ;
#388 = ORIENTED_EDGE ( 'NONE', *, *, #359, .T. ) ;
#389 = VECTOR ( 'NONE', #186, 1000.000000000000000 ) ;
#390 = APPROVAL_ROLE ( '' ) ;
#391 = SECURITY_CLASSIFICATION_LEVEL ( 'unclassified' ) ;
#392 = AXIS2_PLACEMENT_3D ( 'NONE', #156, #372, #99 ) ;
#393 = LOCAL_TIME ( 10, 54, 56.00000000000000000, #191 ) ;
#394 = EDGE_LOOP ( 'NONE', ( #13, #234, #222, #363 ) ) ;
#395 = APPLICATION_CONTEXT ( 'configuration controlled 3d designs of mechanical parts and assemblies' ) ;
#396 = CARTESIAN_POINT ( 'NONE',  ( 0.0000000000000000000, 0.0000000000000000000, 0.0000000000000000000 ) ) ;
#397 = PERSON_AND_ORGANIZATION ( #28, #58 ) ;
#398 = FACE_BOUND ( 'NONE', #155, .T. ) ;
#399 = LOCAL_TIME ( 10, 54, 56.00000000000000000, #307 ) ;
#400 = ORIENTED_EDGE ( 'NONE', *, *, #124, .T. ) ;
#401 = AXIS2_PLACEMENT_3D ( 'NONE', #338, #368, #3 ) ;
#402 = DIRECTION ( 'NONE',  ( -1.000000000000000000, 0.0000000000000000000, 0.0000000000000000000 ) ) ;
#403 = APPROVAL ( #22, 'UNSPECIFIED' ) ;
ENDSEC;
END-ISO-10303-21;
