ISO-10303-21;
HEADER;
FILE_DESCRIPTION (( 'STEP AP214' ),
    '1' );
FILE_NAME ('804125110.STEP',
    '2018-07-14T13:54:08',
    ( '' ),
    ( '' ),
    'SwSTEP 2.0',
    'SolidWorks 2017',
    '' );
FILE_SCHEMA (( 'AUTOMOTIVE_DESIGN' ));
ENDSEC;

DATA;
#1 = ORIENTED_EDGE ( 'NONE', *, *, #150, .T. ) ;
#2 = EDGE_LOOP ( 'NONE', ( #86, #69, #142, #19 ) ) ;
#3 = VERTEX_POINT ( 'NONE', #170 ) ;
#4 = PRODUCT_DEFINITION ( 'UNKNOWN', '', #113, #85 ) ;
#5 = CARTESIAN_POINT ( 'NONE',  ( 37.99999999999999300, 10.10000000000000000, 0.0000000000000000000 ) ) ;
#6 = LINE ( 'NONE', #91, #186 ) ;
#7 = DIRECTION ( 'NONE',  ( -1.000000000000000000, 0.0000000000000000000, 0.0000000000000000000 ) ) ;
#8 = CARTESIAN_POINT ( 'NONE',  ( 37.99999999999999300, -10.10000000000000000, 0.0000000000000000000 ) ) ;
#9 = PRESENTATION_LAYER_ASSIGNMENT (  '', '', ( #75 ) ) ;
#10 = PLANE ( 'NONE',  #118 ) ;
#11 = VERTEX_POINT ( 'NONE', #190 ) ;
#12 = CARTESIAN_POINT ( 'NONE',  ( -38.00000000000000700, 10.10000000000000000, 6.500000000000000000 ) ) ;
#13 = CARTESIAN_POINT ( 'NONE',  ( 0.0000000000000000000, 0.0000000000000000000, 6.500000000000000000 ) ) ;
#14 =( LENGTH_UNIT ( ) NAMED_UNIT ( * ) SI_UNIT ( .MILLI., .METRE. ) );
#15 = PRESENTATION_STYLE_ASSIGNMENT (( #139 ) ) ;
#16 = DIRECTION ( 'NONE',  ( 1.000000000000000000, 0.0000000000000000000, -0.0000000000000000000 ) ) ;
#17 =( LENGTH_UNIT ( ) NAMED_UNIT ( * ) SI_UNIT ( .MILLI., .METRE. ) );
#18 = LINE ( 'NONE', #159, #196 ) ;
#19 = ORIENTED_EDGE ( 'NONE', *, *, #100, .T. ) ;
#20 = LINE ( 'NONE', #5, #56 ) ;
#21 = MANIFOLD_SOLID_BREP ( 'Aufsatz-Linear austragen1', #63 ) ;
#22 = EDGE_CURVE ( 'NONE', #3, #138, #93, .T. ) ;
#23 = CARTESIAN_POINT ( 'NONE',  ( 37.99999999999999300, 10.10000000000000000, 6.500000000000000000 ) ) ;
#24 = DIRECTION ( 'NONE',  ( 1.000000000000000000, 0.0000000000000000000, 0.0000000000000000000 ) ) ;
#25 = EDGE_CURVE ( 'NONE', #45, #106, #6, .T. ) ;
#26 = VERTEX_POINT ( 'NONE', #8 ) ;
#27 = ORIENTED_EDGE ( 'NONE', *, *, #22, .F. ) ;
#28 = MECHANICAL_DESIGN_GEOMETRIC_PRESENTATION_REPRESENTATION (  '', ( #95 ), #188 ) ;
#29 = ADVANCED_FACE ( 'NONE', ( #34 ), #90, .F. ) ;
#30 = ORIENTED_EDGE ( 'NONE', *, *, #185, .T. ) ;
#31 = VECTOR ( 'NONE', #39, 1000.000000000000000 ) ;
#32 = FACE_OUTER_BOUND ( 'NONE', #94, .T. ) ;
#33 = DIRECTION ( 'NONE',  ( -0.0000000000000000000, 0.0000000000000000000, -1.000000000000000000 ) ) ;
#34 = FACE_OUTER_BOUND ( 'NONE', #60, .T. ) ;
#35 = CARTESIAN_POINT ( 'NONE',  ( 37.99999999999999300, 10.10000000000000000, 6.500000000000000000 ) ) ;
#36 = LINE ( 'NONE', #51, #174 ) ;
#37 = VECTOR ( 'NONE', #143, 1000.000000000000000 ) ;
#38 = DIRECTION ( 'NONE',  ( 0.0000000000000000000, -1.000000000000000000, 0.0000000000000000000 ) ) ;
#39 = DIRECTION ( 'NONE',  ( -0.0000000000000000000, 1.000000000000000000, -0.0000000000000000000 ) ) ;
#40 = ORIENTED_EDGE ( 'NONE', *, *, #84, .F. ) ;
#41 = CARTESIAN_POINT ( 'NONE',  ( -38.00000000000000700, -10.10000000000000000, 0.0000000000000000000 ) ) ;
#42 = ORIENTED_EDGE ( 'NONE', *, *, #53, .F. ) ;
#43 = EDGE_CURVE ( 'NONE', #138, #11, #36, .T. ) ;
#44 = VECTOR ( 'NONE', #49, 1000.000000000000000 ) ;
#45 = VERTEX_POINT ( 'NONE', #62 ) ;
#46 = PRESENTATION_STYLE_ASSIGNMENT (( #110 ) ) ;
#47 = COLOUR_RGB ( '',0.7921568627450980000, 0.8196078431372548800, 0.9333333333333333500 ) ;
#48 = CARTESIAN_POINT ( 'NONE',  ( 37.99999999999999300, 10.10000000000000000, 6.500000000000000000 ) ) ;
#49 = DIRECTION ( 'NONE',  ( 1.000000000000000000, 0.0000000000000000000, 0.0000000000000000000 ) ) ;
#50 = ORIENTED_EDGE ( 'NONE', *, *, #150, .F. ) ;
#51 = CARTESIAN_POINT ( 'NONE',  ( -38.00000000000000700, 10.10000000000000000, 6.500000000000000000 ) ) ;
#52 = EDGE_LOOP ( 'NONE', ( #76, #77, #27, #1 ) ) ;
#53 = EDGE_CURVE ( 'NONE', #11, #45, #18, .T. ) ;
#54 = VECTOR ( 'NONE', #182, 1000.000000000000000 ) ;
#55 = ADVANCED_FACE ( 'NONE', ( #59 ), #112, .F. ) ;
#56 = VECTOR ( 'NONE', #172, 1000.000000000000000 ) ;
#57 = EDGE_CURVE ( 'NONE', #73, #82, #133, .T. ) ;
#58 = ORIENTED_EDGE ( 'NONE', *, *, #100, .F. ) ;
#59 = FACE_OUTER_BOUND ( 'NONE', #52, .T. ) ;
#60 = EDGE_LOOP ( 'NONE', ( #30, #50, #58, #127 ) ) ;
#61 = CARTESIAN_POINT ( 'NONE',  ( 37.99999999999999300, 10.10000000000000000, 6.500000000000000000 ) ) ;
#62 = CARTESIAN_POINT ( 'NONE',  ( -38.00000000000000700, -10.10000000000000000, 6.500000000000000000 ) ) ;
#63 = CLOSED_SHELL ( 'NONE', ( #55, #107, #120, #29, #175, #164 ) ) ;
#64 = APPLICATION_CONTEXT ( 'automotive_design' ) ;
#65 = FILL_AREA_STYLE ('',( #145 ) ) ;
#66 = DIRECTION ( 'NONE',  ( 1.000000000000000000, 0.0000000000000000000, 0.0000000000000000000 ) ) ;
#67 = SURFACE_STYLE_FILL_AREA ( #151 ) ;
#68 = EDGE_LOOP ( 'NONE', ( #126, #198, #40, #78 ) ) ;
#69 = ORIENTED_EDGE ( 'NONE', *, *, #43, .T. ) ;
#70 = LINE ( 'NONE', #74, #92 ) ;
#71 = EDGE_CURVE ( 'NONE', #26, #73, #20, .T. ) ;
#72 = COLOUR_RGB ( '',0.7921568627450980000, 0.8196078431372548800, 0.9333333333333333500 ) ;
#73 = VERTEX_POINT ( 'NONE', #158 ) ;
#74 = CARTESIAN_POINT ( 'NONE',  ( 37.99999999999999300, -10.10000000000000000, 6.500000000000000000 ) ) ;
#75 = STYLED_ITEM ( 'NONE', ( #46 ), #21 ) ;
#76 = ORIENTED_EDGE ( 'NONE', *, *, #71, .T. ) ;
#77 = ORIENTED_EDGE ( 'NONE', *, *, #123, .F. ) ;
#78 = ORIENTED_EDGE ( 'NONE', *, *, #57, .F. ) ;
#79 = ORIENTED_EDGE ( 'NONE', *, *, #123, .T. ) ;
#80 = PRODUCT_CONTEXT ( 'NONE', #81, 'mechanical' ) ;
#81 = APPLICATION_CONTEXT ( 'automotive_design' ) ;
#82 = VERTEX_POINT ( 'NONE', #115 ) ;
#83 = ORIENTED_EDGE ( 'NONE', *, *, #25, .F. ) ;
#84 = EDGE_CURVE ( 'NONE', #82, #106, #187, .T. ) ;
#85 = PRODUCT_DEFINITION_CONTEXT ( 'detailed design', #64, 'design' ) ;
#86 = ORIENTED_EDGE ( 'NONE', *, *, #22, .T. ) ;
#87 = PRODUCT ( '804125110', '804125110', '', ( #80 ) ) ;
#88 = VECTOR ( 'NONE', #162, 1000.000000000000000 ) ;
#89 = FACE_OUTER_BOUND ( 'NONE', #136, .T. ) ;
#90 = PLANE ( 'NONE',  #109 ) ;
#91 = CARTESIAN_POINT ( 'NONE',  ( -38.00000000000000700, -10.10000000000000000, 6.500000000000000000 ) ) ;
#92 = VECTOR ( 'NONE', #200, 1000.000000000000000 ) ;
#93 = LINE ( 'NONE', #23, #31 ) ;
#94 = EDGE_LOOP ( 'NONE', ( #128, #108, #180, #79 ) ) ;
#95 = STYLED_ITEM ( 'NONE', ( #15 ), #122 ) ;
#96 = DIRECTION ( 'NONE',  ( -1.000000000000000000, -0.0000000000000000000, -0.0000000000000000000 ) ) ;
#97 = AXIS2_PLACEMENT_3D ( 'NONE', #12, #146, #177 ) ;
#98 = CARTESIAN_POINT ( 'NONE',  ( -38.00000000000000700, -10.10000000000000000, 6.500000000000000000 ) ) ;
#99 =( NAMED_UNIT ( * ) SI_UNIT ( $, .STERADIAN. ) SOLID_ANGLE_UNIT ( ) );
#100 = EDGE_CURVE ( 'NONE', #45, #3, #149, .T. ) ;
#101 = CARTESIAN_POINT ( 'NONE',  ( -38.00000000000000700, -10.10000000000000000, 0.0000000000000000000 ) ) ;
#102 = DIRECTION ( 'NONE',  ( 0.0000000000000000000, -0.0000000000000000000, 1.000000000000000000 ) ) ;
#103 = LINE ( 'NONE', #61, #121 ) ;
#104 = LINE ( 'NONE', #101, #44 ) ;
#105 = LINE ( 'NONE', #181, #37 ) ;
#106 = VERTEX_POINT ( 'NONE', #41 ) ;
#107 = ADVANCED_FACE ( 'NONE', ( #32 ), #161, .F. ) ;
#108 = ORIENTED_EDGE ( 'NONE', *, *, #132, .F. ) ;
#109 = AXIS2_PLACEMENT_3D ( 'NONE', #98, #194, #102 ) ;
#110 = SURFACE_STYLE_USAGE ( .BOTH. , #116 ) ;
#111 = DIRECTION ( 'NONE',  ( 0.0000000000000000000, 0.0000000000000000000, 1.000000000000000000 ) ) ;
#112 = PLANE ( 'NONE',  #179 ) ;
#113 = PRODUCT_DEFINITION_FORMATION_WITH_SPECIFIED_SOURCE ( 'ANY', '', #87, .NOT_KNOWN. ) ;
#114 =( GEOMETRIC_REPRESENTATION_CONTEXT ( 3 ) GLOBAL_UNCERTAINTY_ASSIGNED_CONTEXT ( ( #160 ) ) GLOBAL_UNIT_ASSIGNED_CONTEXT ( ( #14, #173, #171 ) ) REPRESENTATION_CONTEXT ( 'NONE', 'WORKASPACE' ) );
#115 = CARTESIAN_POINT ( 'NONE',  ( -38.00000000000000700, 10.10000000000000000, 0.0000000000000000000 ) ) ;
#116 = SURFACE_SIDE_STYLE ('',( #67 ) ) ;
#117 = ORIENTED_EDGE ( 'NONE', *, *, #132, .T. ) ;
#118 = AXIS2_PLACEMENT_3D ( 'NONE', #13, #130, #24 ) ;
#119 = UNCERTAINTY_MEASURE_WITH_UNIT (LENGTH_MEASURE( 1.000000000000000100E-005 ), #168, 'distance_accuracy_value', 'NONE');
#120 = ADVANCED_FACE ( 'NONE', ( #89 ), #125, .F. ) ;
#121 = VECTOR ( 'NONE', #163, 1000.000000000000000 ) ;
#122 = ADVANCED_BREP_SHAPE_REPRESENTATION ( '804125110', ( #21, #134 ), #144 ) ;
#123 = EDGE_CURVE ( 'NONE', #138, #73, #103, .T. ) ;
#124 =( NAMED_UNIT ( * ) PLANE_ANGLE_UNIT ( ) SI_UNIT ( $, .RADIAN. ) );
#125 = PLANE ( 'NONE',  #141 ) ;
#126 = ORIENTED_EDGE ( 'NONE', *, *, #71, .F. ) ;
#127 = ORIENTED_EDGE ( 'NONE', *, *, #25, .T. ) ;
#128 = ORIENTED_EDGE ( 'NONE', *, *, #57, .T. ) ;
#129 = FILL_AREA_STYLE_COLOUR ( '', #47 ) ;
#130 = DIRECTION ( 'NONE',  ( -0.0000000000000000000, 0.0000000000000000000, 1.000000000000000000 ) ) ;
#131 = VECTOR ( 'NONE', #153, 1000.000000000000000 ) ;
#132 = EDGE_CURVE ( 'NONE', #11, #82, #105, .T. ) ;
#133 = LINE ( 'NONE', #191, #131 ) ;
#134 = AXIS2_PLACEMENT_3D ( 'NONE', #155, #111, #178 ) ;
#135 = FACE_OUTER_BOUND ( 'NONE', #2, .T. ) ;
#136 = EDGE_LOOP ( 'NONE', ( #176, #83, #42, #117 ) ) ;
#137 = CARTESIAN_POINT ( 'NONE',  ( -38.00000000000000700, 10.10000000000000000, 6.500000000000000000 ) ) ;
#138 = VERTEX_POINT ( 'NONE', #35 ) ;
#139 = SURFACE_STYLE_USAGE ( .BOTH. , #157 ) ;
#140 =( NAMED_UNIT ( * ) PLANE_ANGLE_UNIT ( ) SI_UNIT ( $, .RADIAN. ) );
#141 = AXIS2_PLACEMENT_3D ( 'NONE', #137, #16, #33 ) ;
#142 = ORIENTED_EDGE ( 'NONE', *, *, #53, .T. ) ;
#143 = DIRECTION ( 'NONE',  ( -0.0000000000000000000, -0.0000000000000000000, -1.000000000000000000 ) ) ;
#144 =( GEOMETRIC_REPRESENTATION_CONTEXT ( 3 ) GLOBAL_UNCERTAINTY_ASSIGNED_CONTEXT ( ( #119 ) ) GLOBAL_UNIT_ASSIGNED_CONTEXT ( ( #168, #140, #99 ) ) REPRESENTATION_CONTEXT ( 'NONE', 'WORKASPACE' ) );
#145 = FILL_AREA_STYLE_COLOUR ( '', #72 ) ;
#146 = DIRECTION ( 'NONE',  ( 0.0000000000000000000, -1.000000000000000000, 0.0000000000000000000 ) ) ;
#147 = CARTESIAN_POINT ( 'NONE',  ( 0.0000000000000000000, 0.0000000000000000000, 0.0000000000000000000 ) ) ;
#148 = PRODUCT_RELATED_PRODUCT_CATEGORY ( 'part', '', ( #87 ) ) ;
#149 = LINE ( 'NONE', #193, #54 ) ;
#150 = EDGE_CURVE ( 'NONE', #3, #26, #70, .T. ) ;
#151 = FILL_AREA_STYLE ('',( #129 ) ) ;
#152 = SHAPE_DEFINITION_REPRESENTATION ( #199, #122 ) ;
#153 = DIRECTION ( 'NONE',  ( -1.000000000000000000, -0.0000000000000000000, -0.0000000000000000000 ) ) ;
#154 = PLANE ( 'NONE',  #156 ) ;
#155 = CARTESIAN_POINT ( 'NONE',  ( 0.0000000000000000000, 0.0000000000000000000, 0.0000000000000000000 ) ) ;
#156 = AXIS2_PLACEMENT_3D ( 'NONE', #147, #166, #66 ) ;
#157 = SURFACE_SIDE_STYLE ('',( #202 ) ) ;
#158 = CARTESIAN_POINT ( 'NONE',  ( 37.99999999999999300, 10.10000000000000000, 0.0000000000000000000 ) ) ;
#159 = CARTESIAN_POINT ( 'NONE',  ( -38.00000000000000700, 10.10000000000000000, 6.500000000000000000 ) ) ;
#160 = UNCERTAINTY_MEASURE_WITH_UNIT (LENGTH_MEASURE( 1.000000000000000100E-005 ), #14, 'distance_accuracy_value', 'NONE');
#161 = PLANE ( 'NONE',  #97 ) ;
#162 = DIRECTION ( 'NONE',  ( 0.0000000000000000000, -1.000000000000000000, 0.0000000000000000000 ) ) ;
#163 = DIRECTION ( 'NONE',  ( -0.0000000000000000000, -0.0000000000000000000, -1.000000000000000000 ) ) ;
#164 = ADVANCED_FACE ( 'NONE', ( #183 ), #154, .F. ) ;
#165 = MECHANICAL_DESIGN_GEOMETRIC_PRESENTATION_REPRESENTATION (  '', ( #75 ), #114 ) ;
#166 = DIRECTION ( 'NONE',  ( -0.0000000000000000000, 0.0000000000000000000, 1.000000000000000000 ) ) ;
#167 = UNCERTAINTY_MEASURE_WITH_UNIT (LENGTH_MEASURE( 1.000000000000000100E-005 ), #17, 'distance_accuracy_value', 'NONE');
#168 =( LENGTH_UNIT ( ) NAMED_UNIT ( * ) SI_UNIT ( .MILLI., .METRE. ) );
#169 = DIRECTION ( 'NONE',  ( 0.0000000000000000000, 0.0000000000000000000, 1.000000000000000000 ) ) ;
#170 = CARTESIAN_POINT ( 'NONE',  ( 37.99999999999999300, -10.10000000000000000, 6.500000000000000000 ) ) ;
#171 =( NAMED_UNIT ( * ) SI_UNIT ( $, .STERADIAN. ) SOLID_ANGLE_UNIT ( ) );
#172 = DIRECTION ( 'NONE',  ( -0.0000000000000000000, 1.000000000000000000, -0.0000000000000000000 ) ) ;
#173 =( NAMED_UNIT ( * ) PLANE_ANGLE_UNIT ( ) SI_UNIT ( $, .RADIAN. ) );
#174 = VECTOR ( 'NONE', #96, 1000.000000000000000 ) ;
#175 = ADVANCED_FACE ( 'NONE', ( #135 ), #10, .T. ) ;
#176 = ORIENTED_EDGE ( 'NONE', *, *, #84, .T. ) ;
#177 = DIRECTION ( 'NONE',  ( 0.0000000000000000000, -0.0000000000000000000, -1.000000000000000000 ) ) ;
#178 = DIRECTION ( 'NONE',  ( 1.000000000000000000, 0.0000000000000000000, 0.0000000000000000000 ) ) ;
#179 = AXIS2_PLACEMENT_3D ( 'NONE', #48, #7, #169 ) ;
#180 = ORIENTED_EDGE ( 'NONE', *, *, #43, .F. ) ;
#181 = CARTESIAN_POINT ( 'NONE',  ( -38.00000000000000700, 10.10000000000000000, 6.500000000000000000 ) ) ;
#182 = DIRECTION ( 'NONE',  ( 1.000000000000000000, 0.0000000000000000000, 0.0000000000000000000 ) ) ;
#183 = FACE_OUTER_BOUND ( 'NONE', #68, .T. ) ;
#184 = DIRECTION ( 'NONE',  ( -0.0000000000000000000, -0.0000000000000000000, -1.000000000000000000 ) ) ;
#185 = EDGE_CURVE ( 'NONE', #106, #26, #104, .T. ) ;
#186 = VECTOR ( 'NONE', #184, 1000.000000000000000 ) ;
#187 = LINE ( 'NONE', #195, #88 ) ;
#188 =( GEOMETRIC_REPRESENTATION_CONTEXT ( 3 ) GLOBAL_UNCERTAINTY_ASSIGNED_CONTEXT ( ( #167 ) ) GLOBAL_UNIT_ASSIGNED_CONTEXT ( ( #17, #124, #201 ) ) REPRESENTATION_CONTEXT ( 'NONE', 'WORKASPACE' ) );
#189 = APPLICATION_PROTOCOL_DEFINITION ( 'draft international standard', 'automotive_design', 1998, #81 ) ;
#190 = CARTESIAN_POINT ( 'NONE',  ( -38.00000000000000700, 10.10000000000000000, 6.500000000000000000 ) ) ;
#191 = CARTESIAN_POINT ( 'NONE',  ( -38.00000000000000700, 10.10000000000000000, 0.0000000000000000000 ) ) ;
#192 = APPLICATION_PROTOCOL_DEFINITION ( 'draft international standard', 'automotive_design', 1998, #64 ) ;
#193 = CARTESIAN_POINT ( 'NONE',  ( -38.00000000000000700, -10.10000000000000000, 6.500000000000000000 ) ) ;
#194 = DIRECTION ( 'NONE',  ( 0.0000000000000000000, 1.000000000000000000, 0.0000000000000000000 ) ) ;
#195 = CARTESIAN_POINT ( 'NONE',  ( -38.00000000000000700, 10.10000000000000000, 0.0000000000000000000 ) ) ;
#196 = VECTOR ( 'NONE', #38, 1000.000000000000000 ) ;
#197 = PRESENTATION_LAYER_ASSIGNMENT (  '', '', ( #95 ) ) ;
#198 = ORIENTED_EDGE ( 'NONE', *, *, #185, .F. ) ;
#199 = PRODUCT_DEFINITION_SHAPE ( 'NONE', 'NONE',  #4 ) ;
#200 = DIRECTION ( 'NONE',  ( -0.0000000000000000000, -0.0000000000000000000, -1.000000000000000000 ) ) ;
#201 =( NAMED_UNIT ( * ) SI_UNIT ( $, .STERADIAN. ) SOLID_ANGLE_UNIT ( ) );
#202 = SURFACE_STYLE_FILL_AREA ( #65 ) ;
ENDSEC;
END-ISO-10303-21;
