ISO-10303-21;
HEADER;
FILE_DESCRIPTION (( 'STEP AP203' ),
    '1' );
FILE_NAME ('806425100d.STEP',
    '2021-12-11T15:06:08',
    ( '' ),
    ( '' ),
    'SwSTEP 2.0',
    'SolidWorks 2021',
    '' );
FILE_SCHEMA (( 'CONFIG_CONTROL_DESIGN' ));
ENDSEC;

DATA;
#1 = EDGE_CURVE ( 'NONE', #320, #275, #162, .T. ) ;
#2 = VERTEX_POINT ( 'NONE', #178 ) ;
#3 = DIRECTION ( 'NONE',  ( 1.000000000000000000, 0.000000000000000000, 0.000000000000000000 ) ) ;
#4 = CARTESIAN_POINT ( 'NONE',  ( 0.000000000000000000, 0.000000000000000000, 3.699999999999999734 ) ) ;
#5 = CALENDAR_DATE ( 2021, 11, 12 ) ;
#6 = CARTESIAN_POINT ( 'NONE',  ( -5.249999999999999112, 6.429395695523603167E-16, 3.699999999999999734 ) ) ;
#7 = DIRECTION ( 'NONE',  ( 0.000000000000000000, 0.000000000000000000, 1.000000000000000000 ) ) ;
#8 = CYLINDRICAL_SURFACE ( 'NONE', #141, 3.300000000000000266 ) ;
#9 = ADVANCED_FACE ( 'NONE', ( #55 ), #149, .T. ) ;
#10 = CALENDAR_DATE ( 2021, 11, 12 ) ;
#11 = DIRECTION ( 'NONE',  ( 1.000000000000000000, 0.000000000000000000, -0.000000000000000000 ) ) ;
#12 = ORGANIZATION ( 'UNSPECIFIED', 'UNSPECIFIED', '' ) ;
#13 = DIRECTION ( 'NONE',  ( 0.000000000000000000, 0.000000000000000000, 1.000000000000000000 ) ) ;
#14 = PERSON_AND_ORGANIZATION_ROLE ( 'creator' ) ;
#15 = CYLINDRICAL_SURFACE ( 'NONE', #312, 5.249999999999999112 ) ;
#16 = CIRCLE ( 'NONE', #243, 31.00000000000000000 ) ;
#17 = APPROVAL_PERSON_ORGANIZATION ( #199, #191, #246 ) ;
#18 = CC_DESIGN_DATE_AND_TIME_ASSIGNMENT ( #83, #211, ( #214 ) ) ;
#19 = VECTOR ( 'NONE', #182, 1000.000000000000000 ) ;
#20 = EDGE_LOOP ( 'NONE', ( #300, #23 ) ) ;
#21 = EDGE_CURVE ( 'NONE', #46, #144, #190, .T. ) ;
#22 = ORIENTED_EDGE ( 'NONE', *, *, #173, .F. ) ;
#23 = ORIENTED_EDGE ( 'NONE', *, *, #305, .F. ) ;
#24 = PERSON_AND_ORGANIZATION_ROLE ( 'design_owner' ) ;
#25 = APPROVAL_PERSON_ORGANIZATION ( #260, #244, #234 ) ;
#26 = ORIENTED_EDGE ( 'NONE', *, *, #313, .F. ) ;
#27 = DIRECTION ( 'NONE',  ( 0.000000000000000000, 0.000000000000000000, 1.000000000000000000 ) ) ;
#28 = ORIENTED_EDGE ( 'NONE', *, *, #135, .T. ) ;
#29 = ADVANCED_FACE ( 'NONE', ( #306, #280 ), #129, .F. ) ;
#30 = PERSON ( 'UNSPECIFIED', 'UNSPECIFIED', 'UNSPECIFIED', ('UNSPECIFIED'), ('UNSPECIFIED'), ('UNSPECIFIED') ) ;
#31 = DIRECTION ( 'NONE',  ( 1.000000000000000000, 0.000000000000000000, 0.000000000000000000 ) ) ;
#32 = COORDINATED_UNIVERSAL_TIME_OFFSET ( 1, 0, .AHEAD. ) ;
#33 = DIRECTION ( 'NONE',  ( 1.000000000000000000, 0.000000000000000000, -0.000000000000000000 ) ) ;
#34 = FACE_OUTER_BOUND ( 'NONE', #197, .T. ) ;
#35 = PERSON_AND_ORGANIZATION ( #30, #12 ) ;
#36 = DIRECTION ( 'NONE',  ( 1.000000000000000000, 0.000000000000000000, 0.000000000000000000 ) ) ;
#37 = EDGE_CURVE ( 'NONE', #303, #247, #192, .T. ) ;
#38 = COORDINATED_UNIVERSAL_TIME_OFFSET ( 1, 0, .AHEAD. ) ;
#39 = CARTESIAN_POINT ( 'NONE',  ( 0.000000000000000000, 0.000000000000000000, 0.000000000000000000 ) ) ;
#40 = LINE ( 'NONE', #6, #60 ) ;
#41 = CIRCLE ( 'NONE', #119, 5.249999999999999112 ) ;
#42 = ADVANCED_FACE ( 'NONE', ( #205 ), #80, .T. ) ;
#43 = PLANE ( 'NONE',  #88 ) ;
#44 = AXIS2_PLACEMENT_3D ( 'NONE', #57, #310, #227 ) ;
#45 = EDGE_CURVE ( 'NONE', #75, #275, #152, .T. ) ;
#46 = VERTEX_POINT ( 'NONE', #183 ) ;
#47 = DIRECTION ( 'NONE',  ( -1.000000000000000000, 0.000000000000000000, 0.000000000000000000 ) ) ;
#48 = AXIS2_PLACEMENT_3D ( 'NONE', #233, #150, #181 ) ;
#49 = EDGE_LOOP ( 'NONE', ( #28, #245 ) ) ;
#50 = DIRECTION ( 'NONE',  ( 0.000000000000000000, 0.000000000000000000, 1.000000000000000000 ) ) ;
#51 = ORIENTED_EDGE ( 'NONE', *, *, #278, .F. ) ;
#52 = VERTEX_POINT ( 'NONE', #103 ) ;
#53 = CARTESIAN_POINT ( 'NONE',  ( 0.000000000000000000, 0.000000000000000000, 0.000000000000000000 ) ) ;
#54 = PRODUCT_DEFINITION_FORMATION_WITH_SPECIFIED_SOURCE ( 'ANY', '', #87, .NOT_KNOWN. ) ;
#55 = FACE_OUTER_BOUND ( 'NONE', #325, .T. ) ;
#56 = CARTESIAN_POINT ( 'NONE',  ( 3.300000000000000266, 0.000000000000000000, 0.000000000000000000 ) ) ;
#57 = CARTESIAN_POINT ( 'NONE',  ( 0.000000000000000000, 0.000000000000000000, 6.500000000000000000 ) ) ;
#58 = COORDINATED_UNIVERSAL_TIME_OFFSET ( 1, 0, .AHEAD. ) ;
#59 = CARTESIAN_POINT ( 'NONE',  ( -3.300000000000000266, 4.041334437186266003E-16, 0.000000000000000000 ) ) ;
#60 = VECTOR ( 'NONE', #81, 1000.000000000000000 ) ;
#61 = FACE_OUTER_BOUND ( 'NONE', #251, .T. ) ;
#62 = DIRECTION ( 'NONE',  ( 0.000000000000000000, 0.000000000000000000, 1.000000000000000000 ) ) ;
#63 = PERSON_AND_ORGANIZATION ( #30, #12 ) ;
#64 = DIRECTION ( 'NONE',  ( -0.000000000000000000, -0.000000000000000000, -1.000000000000000000 ) ) ;
#65 = CARTESIAN_POINT ( 'NONE',  ( 3.300000000000000266, 0.000000000000000000, 3.699999999999999734 ) ) ;
#66 = AXIS2_PLACEMENT_3D ( 'NONE', #131, #7, #76 ) ;
#67 = ADVANCED_FACE ( 'NONE', ( #61 ), #202, .F. ) ;
#68 = AXIS2_PLACEMENT_3D ( 'NONE', #125, #225, #175 ) ;
#69 = CC_DESIGN_PERSON_AND_ORGANIZATION_ASSIGNMENT ( #63, #289, ( #54 ) ) ;
#70 = DIRECTION ( 'NONE',  ( 0.000000000000000000, 0.000000000000000000, 1.000000000000000000 ) ) ;
#71 = VERTEX_POINT ( 'NONE', #155 ) ;
#72 = ORIENTED_EDGE ( 'NONE', *, *, #224, .T. ) ;
#73 = ORIENTED_EDGE ( 'NONE', *, *, #274, .T. ) ;
#74 = ADVANCED_FACE ( 'NONE', ( #34 ), #258, .F. ) ;
#75 = VERTEX_POINT ( 'NONE', #56 ) ;
#76 = DIRECTION ( 'NONE',  ( 1.000000000000000000, 0.000000000000000000, 0.000000000000000000 ) ) ;
#77 = ADVANCED_FACE ( 'NONE', ( #153, #309 ), #85, .T. ) ;
#78 = DIRECTION ( 'NONE',  ( 1.000000000000000000, 0.000000000000000000, 0.000000000000000000 ) ) ;
#79 = CARTESIAN_POINT ( 'NONE',  ( 0.000000000000000000, 0.000000000000000000, 3.699999999999999734 ) ) ;
#80 = CYLINDRICAL_SURFACE ( 'NONE', #44, 31.00000000000000000 ) ;
#81 = DIRECTION ( 'NONE',  ( -0.000000000000000000, -0.000000000000000000, 1.000000000000000000 ) ) ;
#82 = CC_DESIGN_APPROVAL ( #321, ( #54 ) ) ;
#83 = DATE_AND_TIME ( #236, #95 ) ;
#84 = CARTESIAN_POINT ( 'NONE',  ( 0.000000000000000000, 0.000000000000000000, 6.500000000000000000 ) ) ;
#85 = PLANE ( 'NONE',  #154 ) ;
#86 = DIRECTION ( 'NONE',  ( 1.000000000000000000, 0.000000000000000000, 0.000000000000000000 ) ) ;
#87 = PRODUCT ( '806425100d', '806425100d', '', ( #273 ) ) ;
#88 = AXIS2_PLACEMENT_3D ( 'NONE', #263, #136, #33 ) ;
#89 = LOCAL_TIME ( 16, 6, 8.000000000000000000, #32 ) ;
#90 = ADVANCED_FACE ( 'NONE', ( #206, #208 ), #43, .T. ) ;
#91 = ORIENTED_EDGE ( 'NONE', *, *, #224, .F. ) ;
#92 =( NAMED_UNIT ( * ) SI_UNIT ( $, .STERADIAN. ) SOLID_ANGLE_UNIT ( ) );
#93 = VERTEX_POINT ( 'NONE', #59 ) ;
#94 = CIRCLE ( 'NONE', #318, 5.249999999999999112 ) ;
#95 = LOCAL_TIME ( 16, 6, 8.000000000000000000, #58 ) ;
#96 = EDGE_LOOP ( 'NONE', ( #22, #26 ) ) ;
#97 = EDGE_CURVE ( 'NONE', #144, #2, #40, .T. ) ;
#98 = EDGE_LOOP ( 'NONE', ( #194, #73 ) ) ;
#99 = PERSON_AND_ORGANIZATION ( #30, #12 ) ;
#100 = ORIENTED_EDGE ( 'NONE', *, *, #267, .T. ) ;
#101 = VECTOR ( 'NONE', #288, 1000.000000000000000 ) ;
#102 = ADVANCED_FACE ( 'NONE', ( #311 ), #8, .F. ) ;
#103 = CARTESIAN_POINT ( 'NONE',  ( 31.00000000000000000, 3.796405077356794326E-15, 0.000000000000000000 ) ) ;
#104 = PERSON_AND_ORGANIZATION ( #30, #12 ) ;
#105 = DIRECTION ( 'NONE',  ( 1.000000000000000000, 0.000000000000000000, 0.000000000000000000 ) ) ;
#106 = DIRECTION ( 'NONE',  ( -0.000000000000000000, -0.000000000000000000, 1.000000000000000000 ) ) ;
#107 = SECURITY_CLASSIFICATION_LEVEL ( 'unclassified' ) ;
#108 = DIRECTION ( 'NONE',  ( 1.000000000000000000, 0.000000000000000000, 0.000000000000000000 ) ) ;
#109 = DATE_AND_TIME ( #308, #126 ) ;
#110 = CARTESIAN_POINT ( 'NONE',  ( 31.00000000000000000, 3.796405077356794326E-15, 6.500000000000000000 ) ) ;
#111 = EDGE_CURVE ( 'NONE', #71, #52, #292, .T. ) ;
#112 = PERSON_AND_ORGANIZATION ( #30, #12 ) ;
#113 = DIRECTION ( 'NONE',  ( 0.000000000000000000, 0.000000000000000000, 1.000000000000000000 ) ) ;
#114 = DIRECTION ( 'NONE',  ( -0.000000000000000000, -0.000000000000000000, 1.000000000000000000 ) ) ;
#115 = CC_DESIGN_DATE_AND_TIME_ASSIGNMENT ( #262, #203, ( #265 ) ) ;
#116 = AXIS2_PLACEMENT_3D ( 'NONE', #252, #268, #47 ) ;
#117 = CIRCLE ( 'NONE', #240, 3.300000000000000266 ) ;
#118 = AXIS2_PLACEMENT_3D ( 'NONE', #146, #70, #168 ) ;
#119 = AXIS2_PLACEMENT_3D ( 'NONE', #123, #27, #271 ) ;
#120 = EDGE_LOOP ( 'NONE', ( #324, #276, #122, #198 ) ) ;
#121 = UNCERTAINTY_MEASURE_WITH_UNIT (LENGTH_MEASURE( 1.000000000000000082E-05 ), #216, 'distance_accuracy_value', 'NONE');
#122 = ORIENTED_EDGE ( 'NONE', *, *, #295, .T. ) ;
#123 = CARTESIAN_POINT ( 'NONE',  ( 0.000000000000000000, 0.000000000000000000, 6.500000000000000000 ) ) ;
#124 = ORIENTED_EDGE ( 'NONE', *, *, #317, .T. ) ;
#125 = CARTESIAN_POINT ( 'NONE',  ( 0.000000000000000000, 0.000000000000000000, 0.000000000000000000 ) ) ;
#126 = LOCAL_TIME ( 16, 6, 8.000000000000000000, #160 ) ;
#127 = ORIENTED_EDGE ( 'NONE', *, *, #111, .T. ) ;
#128 = VERTEX_POINT ( 'NONE', #242 ) ;
#129 = PLANE ( 'NONE',  #48 ) ;
#130 = DIRECTION ( 'NONE',  ( 1.000000000000000000, 0.000000000000000000, 0.000000000000000000 ) ) ;
#131 = CARTESIAN_POINT ( 'NONE',  ( 0.000000000000000000, 0.000000000000000000, 6.500000000000000000 ) ) ;
#132 = DATE_AND_TIME ( #5, #89 ) ;
#133 = CARTESIAN_POINT ( 'NONE',  ( 0.000000000000000000, 0.000000000000000000, 6.500000000000000000 ) ) ;
#134 = DIRECTION ( 'NONE',  ( -0.000000000000000000, -0.000000000000000000, 1.000000000000000000 ) ) ;
#135 = EDGE_CURVE ( 'NONE', #247, #303, #16, .T. ) ;
#136 = DIRECTION ( 'NONE',  ( 0.000000000000000000, 0.000000000000000000, 1.000000000000000000 ) ) ;
#137 = APPROVAL_STATUS ( 'not_yet_approved' ) ;
#138 = DIRECTION ( 'NONE',  ( 0.000000000000000000, 0.000000000000000000, 1.000000000000000000 ) ) ;
#139 = CIRCLE ( 'NONE', #326, 5.249999999999999112 ) ;
#140 = APPLICATION_CONTEXT ( 'configuration controlled 3d designs of mechanical parts and assemblies' ) ;
#141 = AXIS2_PLACEMENT_3D ( 'NONE', #315, #134, #36 ) ;
#142 = ORIENTED_EDGE ( 'NONE', *, *, #313, .T. ) ;
#143 = APPROVAL_STATUS ( 'not_yet_approved' ) ;
#144 = VERTEX_POINT ( 'NONE', #290 ) ;
#145 = EDGE_LOOP ( 'NONE', ( #51, #171, #301, #100 ) ) ;
#146 = CARTESIAN_POINT ( 'NONE',  ( 0.000000000000000000, 0.000000000000000000, 3.699999999999999734 ) ) ;
#147 = CALENDAR_DATE ( 2021, 11, 12 ) ;
#148 = ADVANCED_FACE ( 'NONE', ( #235 ), #15, .F. ) ;
#149 = CYLINDRICAL_SURFACE ( 'NONE', #116, 31.00000000000000000 ) ;
#150 = DIRECTION ( 'NONE',  ( 0.000000000000000000, 0.000000000000000000, 1.000000000000000000 ) ) ;
#151 = CARTESIAN_POINT ( 'NONE',  ( 0.000000000000000000, 0.000000000000000000, 0.000000000000000000 ) ) ;
#152 = LINE ( 'NONE', #256, #294 ) ;
#153 = FACE_BOUND ( 'NONE', #96, .T. ) ;
#154 = AXIS2_PLACEMENT_3D ( 'NONE', #257, #209, #11 ) ;
#155 = CARTESIAN_POINT ( 'NONE',  ( -31.00000000000000000, 0.000000000000000000, 0.000000000000000000 ) ) ;
#156 = DIRECTION ( 'NONE',  ( 1.000000000000000000, 0.000000000000000000, 0.000000000000000000 ) ) ;
#157 = EDGE_CURVE ( 'NONE', #303, #52, #231, .T. ) ;
#158 = APPROVAL_ROLE ( '' ) ;
#159 = DIRECTION ( 'NONE',  ( 0.000000000000000000, 0.000000000000000000, 1.000000000000000000 ) ) ;
#160 = COORDINATED_UNIVERSAL_TIME_OFFSET ( 1, 0, .AHEAD. ) ;
#161 = LINE ( 'NONE', #259, #19 ) ;
#162 = CIRCLE ( 'NONE', #118, 3.300000000000000266 ) ;
#163 = ADVANCED_BREP_SHAPE_REPRESENTATION ( '806425100d', ( #218, #68 ), #299 ) ;
#164 = CC_DESIGN_PERSON_AND_ORGANIZATION_ASSIGNMENT ( #112, #285, ( #265 ) ) ;
#165 = ORIENTED_EDGE ( 'NONE', *, *, #295, .F. ) ;
#166 = VECTOR ( 'NONE', #186, 1000.000000000000000 ) ;
#167 = CC_DESIGN_SECURITY_CLASSIFICATION ( #265, ( #54 ) ) ;
#168 = DIRECTION ( 'NONE',  ( 1.000000000000000000, 0.000000000000000000, 0.000000000000000000 ) ) ;
#169 = DESIGN_CONTEXT ( 'detailed design', #140, 'design' ) ;
#170 = AXIS2_PLACEMENT_3D ( 'NONE', #79, #113, #130 ) ;
#171 = ORIENTED_EDGE ( 'NONE', *, *, #317, .F. ) ;
#172 = AXIS2_PLACEMENT_3D ( 'NONE', #151, #13, #255 ) ;
#173 = EDGE_CURVE ( 'NONE', #128, #2, #94, .T. ) ;
#174 = ORIENTED_EDGE ( 'NONE', *, *, #157, .F. ) ;
#175 = DIRECTION ( 'NONE',  ( 1.000000000000000000, 0.000000000000000000, 0.000000000000000000 ) ) ;
#176 = ORIENTED_EDGE ( 'NONE', *, *, #305, .T. ) ;
#177 = COORDINATED_UNIVERSAL_TIME_OFFSET ( 1, 0, .AHEAD. ) ;
#178 = CARTESIAN_POINT ( 'NONE',  ( -5.249999999999999112, 6.429395695523603167E-16, 6.500000000000000000 ) ) ;
#179 = LOCAL_TIME ( 16, 6, 8.000000000000000000, #177 ) ;
#180 = DIRECTION ( 'NONE',  ( -0.000000000000000000, -0.000000000000000000, 1.000000000000000000 ) ) ;
#181 = DIRECTION ( 'NONE',  ( 1.000000000000000000, 0.000000000000000000, -0.000000000000000000 ) ) ;
#182 = DIRECTION ( 'NONE',  ( -0.000000000000000000, -0.000000000000000000, 1.000000000000000000 ) ) ;
#183 = CARTESIAN_POINT ( 'NONE',  ( 5.249999999999999112, 0.000000000000000000, 3.699999999999999734 ) ) ;
#184 = CARTESIAN_POINT ( 'NONE',  ( 0.000000000000000000, 0.000000000000000000, 3.699999999999999734 ) ) ;
#185 = APPROVAL_DATE_TIME ( #304, #191 ) ;
#186 = DIRECTION ( 'NONE',  ( -0.000000000000000000, -0.000000000000000000, -1.000000000000000000 ) ) ;
#187 = CARTESIAN_POINT ( 'NONE',  ( 0.000000000000000000, 0.000000000000000000, 3.699999999999999734 ) ) ;
#188 = PRODUCT_RELATED_PRODUCT_CATEGORY ( 'detail', '', ( #87 ) ) ;
#189 = DIRECTION ( 'NONE',  ( 0.000000000000000000, 0.000000000000000000, 1.000000000000000000 ) ) ;
#190 = CIRCLE ( 'NONE', #213, 5.249999999999999112 ) ;
#191 = APPROVAL ( #143, 'UNSPECIFIED' ) ;
#192 = CIRCLE ( 'NONE', #66, 31.00000000000000000 ) ;
#193 = CC_DESIGN_PERSON_AND_ORGANIZATION_ASSIGNMENT ( #99, #24, ( #87 ) ) ;
#194 = ORIENTED_EDGE ( 'NONE', *, *, #21, .T. ) ;
#195 = AXIS2_PLACEMENT_3D ( 'NONE', #307, #283, #78 ) ;
#196 = EDGE_LOOP ( 'NONE', ( #215, #272 ) ) ;
#197 = EDGE_LOOP ( 'NONE', ( #248, #266, #142, #165 ) ) ;
#198 = ORIENTED_EDGE ( 'NONE', *, *, #173, .T. ) ;
#199 = PERSON_AND_ORGANIZATION ( #30, #12 ) ;
#200 = PRODUCT_DEFINITION_SHAPE ( 'NONE', 'NONE',  #214 ) ;
#201 = CARTESIAN_POINT ( 'NONE',  ( 0.000000000000000000, 0.000000000000000000, 3.699999999999999734 ) ) ;
#202 = CYLINDRICAL_SURFACE ( 'NONE', #195, 3.300000000000000266 ) ;
#203 = DATE_TIME_ROLE ( 'classification_date' ) ;
#204 = LINE ( 'NONE', #286, #166 ) ;
#205 = FACE_OUTER_BOUND ( 'NONE', #329, .T. ) ;
#206 = FACE_BOUND ( 'NONE', #196, .T. ) ;
#207 = SHAPE_DEFINITION_REPRESENTATION ( #200, #163 ) ;
#208 = FACE_OUTER_BOUND ( 'NONE', #98, .T. ) ;
#209 = DIRECTION ( 'NONE',  ( 0.000000000000000000, 0.000000000000000000, 1.000000000000000000 ) ) ;
#210 = APPLICATION_CONTEXT ( 'configuration controlled 3d designs of mechanical parts and assemblies' ) ;
#211 = DATE_TIME_ROLE ( 'creation_date' ) ;
#212 = CARTESIAN_POINT ( 'NONE',  ( 31.00000000000000000, 3.796405077356794326E-15, 6.500000000000000000 ) ) ;
#213 = AXIS2_PLACEMENT_3D ( 'NONE', #4, #253, #31 ) ;
#214 = PRODUCT_DEFINITION ( 'UNKNOWN', '', #54, #169 ) ;
#215 = ORIENTED_EDGE ( 'NONE', *, *, #267, .F. ) ;
#216 =( LENGTH_UNIT ( ) NAMED_UNIT ( * ) SI_UNIT ( .MILLI., .METRE. ) );
#217 = ORIENTED_EDGE ( 'NONE', *, *, #293, .T. ) ;
#218 = MANIFOLD_SOLID_BREP ( 'Schnitt-Linear austragen2', #284 ) ;
#219 = CARTESIAN_POINT ( 'NONE',  ( -3.300000000000000266, 4.041334437186266003E-16, 3.699999999999999734 ) ) ;
#220 = ORIENTED_EDGE ( 'NONE', *, *, #37, .F. ) ;
#221 = CC_DESIGN_APPROVAL ( #191, ( #214 ) ) ;
#222 = APPLICATION_PROTOCOL_DEFINITION ( 'international standard', 'config_control_design', 1994, #140 ) ;
#223 = ORIENTED_EDGE ( 'NONE', *, *, #293, .F. ) ;
#224 = EDGE_CURVE ( 'NONE', #247, #71, #204, .T. ) ;
#225 = DIRECTION ( 'NONE',  ( 0.000000000000000000, 0.000000000000000000, 1.000000000000000000 ) ) ;
#226 = ORIENTED_EDGE ( 'NONE', *, *, #278, .T. ) ;
#227 = DIRECTION ( 'NONE',  ( -1.000000000000000000, 0.000000000000000000, 0.000000000000000000 ) ) ;
#228 = AXIS2_PLACEMENT_3D ( 'NONE', #261, #282, #314 ) ;
#229 = AXIS2_PLACEMENT_3D ( 'NONE', #39, #159, #86 ) ;
#230 = PERSON_AND_ORGANIZATION ( #30, #12 ) ;
#231 = LINE ( 'NONE', #212, #269 ) ;
#232 = CC_DESIGN_PERSON_AND_ORGANIZATION_ASSIGNMENT ( #230, #281, ( #54 ) ) ;
#233 = CARTESIAN_POINT ( 'NONE',  ( 0.000000000000000000, 0.000000000000000000, 0.000000000000000000 ) ) ;
#234 = APPROVAL_ROLE ( '' ) ;
#235 = FACE_OUTER_BOUND ( 'NONE', #120, .T. ) ;
#236 = CALENDAR_DATE ( 2021, 11, 12 ) ;
#237 = LINE ( 'NONE', #291, #101 ) ;
#238 = DIRECTION ( 'NONE',  ( 1.000000000000000000, 0.000000000000000000, 0.000000000000000000 ) ) ;
#239 = AXIS2_PLACEMENT_3D ( 'NONE', #201, #180, #279 ) ;
#240 = AXIS2_PLACEMENT_3D ( 'NONE', #53, #50, #3 ) ;
#241 = APPROVAL_DATE_TIME ( #109, #244 ) ;
#242 = CARTESIAN_POINT ( 'NONE',  ( 5.249999999999999112, 0.000000000000000000, 6.500000000000000000 ) ) ;
#243 = AXIS2_PLACEMENT_3D ( 'NONE', #133, #138, #238 ) ;
#244 = APPROVAL ( #137, 'UNSPECIFIED' ) ;
#245 = ORIENTED_EDGE ( 'NONE', *, *, #37, .T. ) ;
#246 = APPROVAL_ROLE ( '' ) ;
#247 = VERTEX_POINT ( 'NONE', #316 ) ;
#248 = ORIENTED_EDGE ( 'NONE', *, *, #274, .F. ) ;
#249 = CC_DESIGN_PERSON_AND_ORGANIZATION_ASSIGNMENT ( #35, #14, ( #214 ) ) ;
#250 = CIRCLE ( 'NONE', #170, 3.300000000000000266 ) ;
#251 = EDGE_LOOP ( 'NONE', ( #223, #226, #328, #296 ) ) ;
#252 = CARTESIAN_POINT ( 'NONE',  ( 0.000000000000000000, 0.000000000000000000, 6.500000000000000000 ) ) ;
#253 = DIRECTION ( 'NONE',  ( 0.000000000000000000, 0.000000000000000000, 1.000000000000000000 ) ) ;
#254 = APPROVAL_STATUS ( 'not_yet_approved' ) ;
#255 = DIRECTION ( 'NONE',  ( 1.000000000000000000, 0.000000000000000000, 0.000000000000000000 ) ) ;
#256 = CARTESIAN_POINT ( 'NONE',  ( 3.300000000000000266, 0.000000000000000000, 0.000000000000000000 ) ) ;
#257 = CARTESIAN_POINT ( 'NONE',  ( 0.000000000000000000, 0.000000000000000000, 6.500000000000000000 ) ) ;
#258 = CYLINDRICAL_SURFACE ( 'NONE', #239, 5.249999999999999112 ) ;
#259 = CARTESIAN_POINT ( 'NONE',  ( -3.300000000000000266, 4.041334437186266003E-16, 0.000000000000000000 ) ) ;
#260 = PERSON_AND_ORGANIZATION ( #30, #12 ) ;
#261 = CARTESIAN_POINT ( 'NONE',  ( 0.000000000000000000, 0.000000000000000000, 0.000000000000000000 ) ) ;
#262 = DATE_AND_TIME ( #10, #277 ) ;
#263 = CARTESIAN_POINT ( 'NONE',  ( 0.000000000000000000, 0.000000000000000000, 3.699999999999999734 ) ) ;
#264 = CC_DESIGN_APPROVAL ( #244, ( #265 ) ) ;
#265 = SECURITY_CLASSIFICATION ( '', '', #107 ) ;
#266 = ORIENTED_EDGE ( 'NONE', *, *, #97, .T. ) ;
#267 = EDGE_CURVE ( 'NONE', #275, #320, #250, .T. ) ;
#268 = DIRECTION ( 'NONE',  ( -0.000000000000000000, -0.000000000000000000, -1.000000000000000000 ) ) ;
#269 = VECTOR ( 'NONE', #64, 1000.000000000000000 ) ;
#270 = EDGE_LOOP ( 'NONE', ( #124, #217 ) ) ;
#271 = DIRECTION ( 'NONE',  ( 1.000000000000000000, 0.000000000000000000, 0.000000000000000000 ) ) ;
#272 = ORIENTED_EDGE ( 'NONE', *, *, #1, .F. ) ;
#273 = MECHANICAL_CONTEXT ( 'NONE', #210, 'mechanical' ) ;
#274 = EDGE_CURVE ( 'NONE', #144, #46, #139, .T. ) ;
#275 = VERTEX_POINT ( 'NONE', #65 ) ;
#276 = ORIENTED_EDGE ( 'NONE', *, *, #21, .F. ) ;
#277 = LOCAL_TIME ( 16, 6, 8.000000000000000000, #38 ) ;
#278 = EDGE_CURVE ( 'NONE', #93, #320, #161, .T. ) ;
#279 = DIRECTION ( 'NONE',  ( 1.000000000000000000, 0.000000000000000000, 0.000000000000000000 ) ) ;
#280 = FACE_OUTER_BOUND ( 'NONE', #20, .T. ) ;
#281 = PERSON_AND_ORGANIZATION_ROLE ( 'design_supplier' ) ;
#282 = DIRECTION ( 'NONE',  ( 0.000000000000000000, 0.000000000000000000, 1.000000000000000000 ) ) ;
#283 = DIRECTION ( 'NONE',  ( -0.000000000000000000, -0.000000000000000000, 1.000000000000000000 ) ) ;
#284 = CLOSED_SHELL ( 'NONE', ( #67, #74, #42, #9, #77, #29, #148, #90, #102 ) ) ;
#285 = PERSON_AND_ORGANIZATION_ROLE ( 'classification_officer' ) ;
#286 = CARTESIAN_POINT ( 'NONE',  ( -31.00000000000000000, 0.000000000000000000, 6.500000000000000000 ) ) ;
#287 = APPROVAL_DATE_TIME ( #132, #321 ) ;
#288 = DIRECTION ( 'NONE',  ( -0.000000000000000000, -0.000000000000000000, 1.000000000000000000 ) ) ;
#289 = PERSON_AND_ORGANIZATION_ROLE ( 'creator' ) ;
#290 = CARTESIAN_POINT ( 'NONE',  ( -5.249999999999999112, 6.429395695523603167E-16, 3.699999999999999734 ) ) ;
#291 = CARTESIAN_POINT ( 'NONE',  ( 5.249999999999999112, 0.000000000000000000, 3.699999999999999734 ) ) ;
#292 = CIRCLE ( 'NONE', #228, 31.00000000000000000 ) ;
#293 = EDGE_CURVE ( 'NONE', #93, #75, #322, .T. ) ;
#294 = VECTOR ( 'NONE', #106, 1000.000000000000000 ) ;
#295 = EDGE_CURVE ( 'NONE', #46, #128, #237, .T. ) ;
#296 = ORIENTED_EDGE ( 'NONE', *, *, #45, .F. ) ;
#297 = ORIENTED_EDGE ( 'NONE', *, *, #135, .F. ) ;
#298 =( NAMED_UNIT ( * ) PLANE_ANGLE_UNIT ( ) SI_UNIT ( $, .RADIAN. ) );
#299 =( GEOMETRIC_REPRESENTATION_CONTEXT ( 3 ) GLOBAL_UNCERTAINTY_ASSIGNED_CONTEXT ( ( #121 ) ) GLOBAL_UNIT_ASSIGNED_CONTEXT ( ( #216, #298, #92 ) ) REPRESENTATION_CONTEXT ( 'NONE', 'WORKASPACE' ) );
#300 = ORIENTED_EDGE ( 'NONE', *, *, #111, .F. ) ;
#301 = ORIENTED_EDGE ( 'NONE', *, *, #45, .T. ) ;
#302 = APPLICATION_PROTOCOL_DEFINITION ( 'international standard', 'config_control_design', 1994, #210 ) ;
#303 = VERTEX_POINT ( 'NONE', #110 ) ;
#304 = DATE_AND_TIME ( #147, #179 ) ;
#305 = EDGE_CURVE ( 'NONE', #52, #71, #319, .T. ) ;
#306 = FACE_BOUND ( 'NONE', #270, .T. ) ;
#307 = CARTESIAN_POINT ( 'NONE',  ( 0.000000000000000000, 0.000000000000000000, 0.000000000000000000 ) ) ;
#308 = CALENDAR_DATE ( 2021, 11, 12 ) ;
#309 = FACE_OUTER_BOUND ( 'NONE', #49, .T. ) ;
#310 = DIRECTION ( 'NONE',  ( -0.000000000000000000, -0.000000000000000000, -1.000000000000000000 ) ) ;
#311 = FACE_OUTER_BOUND ( 'NONE', #145, .T. ) ;
#312 = AXIS2_PLACEMENT_3D ( 'NONE', #184, #114, #105 ) ;
#313 = EDGE_CURVE ( 'NONE', #2, #128, #41, .T. ) ;
#314 = DIRECTION ( 'NONE',  ( 1.000000000000000000, 0.000000000000000000, 0.000000000000000000 ) ) ;
#315 = CARTESIAN_POINT ( 'NONE',  ( 0.000000000000000000, 0.000000000000000000, 0.000000000000000000 ) ) ;
#316 = CARTESIAN_POINT ( 'NONE',  ( -31.00000000000000000, 0.000000000000000000, 6.500000000000000000 ) ) ;
#317 = EDGE_CURVE ( 'NONE', #75, #93, #117, .T. ) ;
#318 = AXIS2_PLACEMENT_3D ( 'NONE', #84, #189, #108 ) ;
#319 = CIRCLE ( 'NONE', #172, 31.00000000000000000 ) ;
#320 = VERTEX_POINT ( 'NONE', #219 ) ;
#321 = APPROVAL ( #254, 'UNSPECIFIED' ) ;
#322 = CIRCLE ( 'NONE', #229, 3.300000000000000266 ) ;
#323 = ORIENTED_EDGE ( 'NONE', *, *, #157, .T. ) ;
#324 = ORIENTED_EDGE ( 'NONE', *, *, #97, .F. ) ;
#325 = EDGE_LOOP ( 'NONE', ( #174, #297, #72, #127 ) ) ;
#326 = AXIS2_PLACEMENT_3D ( 'NONE', #187, #62, #156 ) ;
#327 = APPROVAL_PERSON_ORGANIZATION ( #104, #321, #158 ) ;
#328 = ORIENTED_EDGE ( 'NONE', *, *, #1, .T. ) ;
#329 = EDGE_LOOP ( 'NONE', ( #220, #323, #176, #91 ) ) ;
ENDSEC;
END-ISO-10303-21;
