ISO-10303-21;
HEADER;
FILE_DESCRIPTION (( 'STEP AP214' ),
    '1' );
FILE_NAME ('93134500d.STEP',
    '2019-06-24T13:38:54',
    ( '' ),
    ( '' ),
    'SwSTEP 2.0',
    'SolidWorks 2017',
    '' );
FILE_SCHEMA (( 'AUTOMOTIVE_DESIGN' ));
ENDSEC;

DATA;
#1 = ORIENTED_EDGE ( 'NONE', *, *, #186, .T. ) ;
#2 = ORIENTED_EDGE ( 'NONE', *, *, #285, .T. ) ;
#3 = AXIS2_PLACEMENT_3D ( 'NONE', #288, #81, #242 ) ;
#4 = PRESENTATION_LAYER_ASSIGNMENT (  '', '', ( #293 ) ) ;
#5 = ORIENTED_EDGE ( 'NONE', *, *, #8, .F. ) ;
#6 = DIRECTION ( 'NONE',  ( 0.0000000000000000000, 0.0000000000000000000, -1.000000000000000000 ) ) ;
#7 = DIRECTION ( 'NONE',  ( -0.0000000000000000000, -0.0000000000000000000, -1.000000000000000000 ) ) ;
#8 = EDGE_CURVE ( 'NONE', #16, #36, #180, .T. ) ;
#9 = ADVANCED_FACE ( 'NONE', ( #246, #172 ), #264, .T. ) ;
#10 = PLANE ( 'NONE',  #165 ) ;
#11 = PRODUCT_CONTEXT ( 'NONE', #71, 'mechanical' ) ;
#12 = DIRECTION ( 'NONE',  ( -0.0000000000000000000, -0.0000000000000000000, 1.000000000000000000 ) ) ;
#13 = SURFACE_SIDE_STYLE ('',( #272 ) ) ;
#14 = CARTESIAN_POINT ( 'NONE',  ( -14.69999999999999900, 22.70000000000000300, -1.600000000000000100 ) ) ;
#15 = CARTESIAN_POINT ( 'NONE',  ( 0.0000000000000000000, 0.0000000000000000000, 0.0000000000000000000 ) ) ;
#16 = VERTEX_POINT ( 'NONE', #125 ) ;
#17 = CARTESIAN_POINT ( 'NONE',  ( 14.69999999999999400, -22.69999999999999600, -1.600000000000000100 ) ) ;
#18 = VERTEX_POINT ( 'NONE', #287 ) ;
#19 = LINE ( 'NONE', #155, #312 ) ;
#20 = ORIENTED_EDGE ( 'NONE', *, *, #284, .T. ) ;
#21 = UNCERTAINTY_MEASURE_WITH_UNIT (LENGTH_MEASURE( 1.000000000000000100E-005 ), #129, 'distance_accuracy_value', 'NONE');
#22 = FACE_OUTER_BOUND ( 'NONE', #183, .T. ) ;
#23 = AXIS2_PLACEMENT_3D ( 'NONE', #69, #177, #133 ) ;
#24 = DIRECTION ( 'NONE',  ( 1.910488409666087300E-016, 1.000000000000000000, -0.0000000000000000000 ) ) ;
#25 = LINE ( 'NONE', #76, #156 ) ;
#26 = DIRECTION ( 'NONE',  ( 1.000000000000000000, 0.0000000000000000000, 0.0000000000000000000 ) ) ;
#27 = CARTESIAN_POINT ( 'NONE',  ( 14.89999999999999900, -23.00000000000000000, 0.0000000000000000000 ) ) ;
#28 = ORIENTED_EDGE ( 'NONE', *, *, #32, .T. ) ;
#29 = ORIENTED_EDGE ( 'NONE', *, *, #302, .F. ) ;
#30 = EDGE_CURVE ( 'NONE', #290, #168, #85, .T. ) ;
#31 = VECTOR ( 'NONE', #158, 1000.000000000000000 ) ;
#32 = EDGE_CURVE ( 'NONE', #323, #118, #112, .T. ) ;
#33 = VECTOR ( 'NONE', #311, 1000.000000000000000 ) ;
#34 =( GEOMETRIC_REPRESENTATION_CONTEXT ( 3 ) GLOBAL_UNCERTAINTY_ASSIGNED_CONTEXT ( ( #21 ) ) GLOBAL_UNIT_ASSIGNED_CONTEXT ( ( #129, #182, #48 ) ) REPRESENTATION_CONTEXT ( 'NONE', 'WORKASPACE' ) );
#35 = ORIENTED_EDGE ( 'NONE', *, *, #217, .T. ) ;
#36 = VERTEX_POINT ( 'NONE', #148 ) ;
#37 = CARTESIAN_POINT ( 'NONE',  ( -14.69999999999999900, 22.70000000000000300, 0.0000000000000000000 ) ) ;
#38 = DIRECTION ( 'NONE',  ( -0.0000000000000000000, -0.0000000000000000000, -1.000000000000000000 ) ) ;
#39 = DIRECTION ( 'NONE',  ( -0.0000000000000000000, -1.000000000000000000, -0.0000000000000000000 ) ) ;
#40 = ADVANCED_FACE ( 'NONE', ( #337 ), #307, .F. ) ;
#41 = DIRECTION ( 'NONE',  ( 0.0000000000000000000, 0.0000000000000000000, 1.000000000000000000 ) ) ;
#42 = EDGE_LOOP ( 'NONE', ( #28, #194, #247, #164 ) ) ;
#43 = FILL_AREA_STYLE_COLOUR ( '', #178 ) ;
#44 = SHAPE_DEFINITION_REPRESENTATION ( #83, #51 ) ;
#45 = DIRECTION ( 'NONE',  ( 1.000000000000000000, -0.0000000000000000000, -0.0000000000000000000 ) ) ;
#46 = FACE_OUTER_BOUND ( 'NONE', #61, .T. ) ;
#47 = ORIENTED_EDGE ( 'NONE', *, *, #54, .F. ) ;
#48 =( NAMED_UNIT ( * ) SI_UNIT ( $, .STERADIAN. ) SOLID_ANGLE_UNIT ( ) );
#49 = SURFACE_STYLE_USAGE ( .BOTH. , #106 ) ;
#50 = CARTESIAN_POINT ( 'NONE',  ( 14.89999999999999900, -23.00000000000000000, 5.400000000000000400 ) ) ;
#51 = ADVANCED_BREP_SHAPE_REPRESENTATION ( '93134500d', ( #210, #136 ), #80 ) ;
#52 = EDGE_CURVE ( 'NONE', #179, #59, #64, .T. ) ;
#53 = CARTESIAN_POINT ( 'NONE',  ( 14.69999999999999400, -22.69999999999999600, -1.600000000000000100 ) ) ;
#54 = EDGE_CURVE ( 'NONE', #222, #323, #220, .T. ) ;
#55 = CARTESIAN_POINT ( 'NONE',  ( 14.69999999999999900, 22.70000000000000300, -1.600000000000000100 ) ) ;
#56 =( GEOMETRIC_REPRESENTATION_CONTEXT ( 3 ) GLOBAL_UNCERTAINTY_ASSIGNED_CONTEXT ( ( #276 ) ) GLOBAL_UNIT_ASSIGNED_CONTEXT ( ( #308, #99, #255 ) ) REPRESENTATION_CONTEXT ( 'NONE', 'WORKASPACE' ) );
#57 = VECTOR ( 'NONE', #261, 1000.000000000000000 ) ;
#58 = PLANE ( 'NONE',  #115 ) ;
#59 = VERTEX_POINT ( 'NONE', #317 ) ;
#60 = ORIENTED_EDGE ( 'NONE', *, *, #188, .T. ) ;
#61 = EDGE_LOOP ( 'NONE', ( #35, #107, #335, #20 ) ) ;
#62 = VECTOR ( 'NONE', #104, 1000.000000000000000 ) ;
#63 = ORIENTED_EDGE ( 'NONE', *, *, #270, .F. ) ;
#64 = LINE ( 'NONE', #213, #145 ) ;
#65 = ADVANCED_FACE ( 'NONE', ( #46 ), #10, .T. ) ;
#66 = VECTOR ( 'NONE', #208, 1000.000000000000000 ) ;
#67 = CARTESIAN_POINT ( 'NONE',  ( -14.90000000000000200, 23.00000000000000000, 5.400000000000000400 ) ) ;
#68 = PLANE ( 'NONE',  #23 ) ;
#69 = CARTESIAN_POINT ( 'NONE',  ( 14.69999999999999900, 22.70000000000000300, -1.600000000000000100 ) ) ;
#70 = ORIENTED_EDGE ( 'NONE', *, *, #285, .F. ) ;
#71 = APPLICATION_CONTEXT ( 'automotive_design' ) ;
#72 = DIRECTION ( 'NONE',  ( -1.000000000000000000, -0.0000000000000000000, -0.0000000000000000000 ) ) ;
#73 = CARTESIAN_POINT ( 'NONE',  ( 14.69999999999999900, 22.70000000000000300, 0.0000000000000000000 ) ) ;
#74 = CARTESIAN_POINT ( 'NONE',  ( 14.69999999999999900, 22.70000000000000300, -1.600000000000000100 ) ) ;
#75 = FACE_OUTER_BOUND ( 'NONE', #191, .T. ) ;
#76 = CARTESIAN_POINT ( 'NONE',  ( -14.70000000000000800, -22.69999999999999600, -1.600000000000000100 ) ) ;
#77 = CARTESIAN_POINT ( 'NONE',  ( 14.69999999999999400, -22.69999999999999600, -0.0000000000000000000 ) ) ;
#78 = DIRECTION ( 'NONE',  ( 0.0000000000000000000, 1.000000000000000000, 0.0000000000000000000 ) ) ;
#79 = VECTOR ( 'NONE', #91, 1000.000000000000000 ) ;
#80 =( GEOMETRIC_REPRESENTATION_CONTEXT ( 3 ) GLOBAL_UNCERTAINTY_ASSIGNED_CONTEXT ( ( #229 ) ) GLOBAL_UNIT_ASSIGNED_CONTEXT ( ( #181, #154, #310 ) ) REPRESENTATION_CONTEXT ( 'NONE', 'WORKASPACE' ) );
#81 = DIRECTION ( 'NONE',  ( 1.000000000000000000, -1.910488409666087300E-016, 0.0000000000000000000 ) ) ;
#82 = VERTEX_POINT ( 'NONE', #67 ) ;
#83 = PRODUCT_DEFINITION_SHAPE ( 'NONE', 'NONE',  #153 ) ;
#84 = VECTOR ( 'NONE', #72, 1000.000000000000000 ) ;
#85 = LINE ( 'NONE', #240, #212 ) ;
#86 = VECTOR ( 'NONE', #12, 1000.000000000000000 ) ;
#87 = EDGE_CURVE ( 'NONE', #92, #323, #339, .T. ) ;
#88 = EDGE_CURVE ( 'NONE', #273, #179, #283, .T. ) ;
#89 = ORIENTED_EDGE ( 'NONE', *, *, #87, .F. ) ;
#90 = VECTOR ( 'NONE', #257, 1000.000000000000000 ) ;
#91 = DIRECTION ( 'NONE',  ( -0.0000000000000000000, -1.000000000000000000, -0.0000000000000000000 ) ) ;
#92 = VERTEX_POINT ( 'NONE', #301 ) ;
#93 = ADVANCED_FACE ( 'NONE', ( #271 ), #68, .F. ) ;
#94 = VECTOR ( 'NONE', #228, 1000.000000000000000 ) ;
#95 = LINE ( 'NONE', #131, #149 ) ;
#96 = AXIS2_PLACEMENT_3D ( 'NONE', #127, #281, #211 ) ;
#97 = ADVANCED_FACE ( 'NONE', ( #159 ), #238, .F. ) ;
#98 = CARTESIAN_POINT ( 'NONE',  ( 14.89999999999999900, 23.00000000000000000, 5.400000000000000400 ) ) ;
#99 =( NAMED_UNIT ( * ) PLANE_ANGLE_UNIT ( ) SI_UNIT ( $, .RADIAN. ) );
#100 = DIRECTION ( 'NONE',  ( -1.000000000000000000, 0.0000000000000000000, 0.0000000000000000000 ) ) ;
#101 = ORIENTED_EDGE ( 'NONE', *, *, #32, .F. ) ;
#102 = CARTESIAN_POINT ( 'NONE',  ( -14.69999999999999900, 22.70000000000000300, -1.600000000000000100 ) ) ;
#103 = VERTEX_POINT ( 'NONE', #55 ) ;
#104 = DIRECTION ( 'NONE',  ( -1.000000000000000000, 0.0000000000000000000, 0.0000000000000000000 ) ) ;
#105 = PRODUCT_DEFINITION_CONTEXT ( 'detailed design', #332, 'design' ) ;
#106 = SURFACE_SIDE_STYLE ('',( #291 ) ) ;
#107 = ORIENTED_EDGE ( 'NONE', *, *, #219, .T. ) ;
#108 = DIRECTION ( 'NONE',  ( 0.0000000000000000000, 0.0000000000000000000, 1.000000000000000000 ) ) ;
#109 = LINE ( 'NONE', #73, #142 ) ;
#110 = DIRECTION ( 'NONE',  ( 0.0000000000000000000, 0.0000000000000000000, -1.000000000000000000 ) ) ;
#111 = CARTESIAN_POINT ( 'NONE',  ( -14.70000000000000800, -22.69999999999999600, 0.0000000000000000000 ) ) ;
#112 = LINE ( 'NONE', #77, #224 ) ;
#113 = COLOUR_RGB ( '',0.7921568627450980000, 0.8196078431372548800, 0.9333333333333333500 ) ;
#114 = EDGE_LOOP ( 'NONE', ( #126, #237, #5, #143 ) ) ;
#115 = AXIS2_PLACEMENT_3D ( 'NONE', #266, #26, #110 ) ;
#116 = AXIS2_PLACEMENT_3D ( 'NONE', #173, #6, #198 ) ;
#117 = EDGE_LOOP ( 'NONE', ( #120, #327, #320, #245 ) ) ;
#118 = VERTEX_POINT ( 'NONE', #111 ) ;
#119 = PRESENTATION_STYLE_ASSIGNMENT (( #49 ) ) ;
#120 = ORIENTED_EDGE ( 'NONE', *, *, #341, .T. ) ;
#121 = ADVANCED_FACE ( 'NONE', ( #141 ), #135, .F. ) ;
#122 = DIRECTION ( 'NONE',  ( -0.0000000000000000000, -0.0000000000000000000, -1.000000000000000000 ) ) ;
#123 = CARTESIAN_POINT ( 'NONE',  ( -14.90000000000000200, -23.00000000000000000, 5.400000000000000400 ) ) ;
#124 = DIRECTION ( 'NONE',  ( -1.146293045799652500E-016, -1.000000000000000000, -0.0000000000000000000 ) ) ;
#125 = CARTESIAN_POINT ( 'NONE',  ( -14.70000000000000800, -22.69999999999999600, -1.600000000000000100 ) ) ;
#126 = ORIENTED_EDGE ( 'NONE', *, *, #338, .T. ) ;
#127 = CARTESIAN_POINT ( 'NONE',  ( 14.69999999999999900, 22.70000000000000300, -1.600000000000000100 ) ) ;
#128 = CARTESIAN_POINT ( 'NONE',  ( -14.69999999999999900, 22.70000000000000300, 0.0000000000000000000 ) ) ;
#129 =( LENGTH_UNIT ( ) NAMED_UNIT ( * ) SI_UNIT ( .MILLI., .METRE. ) );
#130 = ORIENTED_EDGE ( 'NONE', *, *, #30, .T. ) ;
#131 = CARTESIAN_POINT ( 'NONE',  ( -14.90000000000000200, 23.00000000000000000, 0.0000000000000000000 ) ) ;
#132 = AXIS2_PLACEMENT_3D ( 'NONE', #53, #263, #256 ) ;
#133 = DIRECTION ( 'NONE',  ( 0.0000000000000000000, 0.0000000000000000000, -1.000000000000000000 ) ) ;
#134 = VECTOR ( 'NONE', #236, 1000.000000000000000 ) ;
#135 = PLANE ( 'NONE',  #3 ) ;
#136 = AXIS2_PLACEMENT_3D ( 'NONE', #15, #41, #205 ) ;
#137 = EDGE_LOOP ( 'NONE', ( #243, #197, #157, #232 ) ) ;
#138 = MECHANICAL_DESIGN_GEOMETRIC_PRESENTATION_REPRESENTATION (  '', ( #293 ), #56 ) ;
#139 = VECTOR ( 'NONE', #7, 1000.000000000000000 ) ;
#140 = PRODUCT ( '93134500d', '93134500d', '', ( #11 ) ) ;
#141 = FACE_OUTER_BOUND ( 'NONE', #114, .T. ) ;
#142 = VECTOR ( 'NONE', #45, 1000.000000000000000 ) ;
#143 = ORIENTED_EDGE ( 'NONE', *, *, #251, .T. ) ;
#144 = CARTESIAN_POINT ( 'NONE',  ( 14.69999999999999900, 22.70000000000000300, -1.600000000000000100 ) ) ;
#145 = VECTOR ( 'NONE', #189, 1000.000000000000000 ) ;
#146 = CARTESIAN_POINT ( 'NONE',  ( -14.90000000000000200, 23.00000000000000000, 5.400000000000000400 ) ) ;
#147 = VECTOR ( 'NONE', #122, 1000.000000000000000 ) ;
#148 = CARTESIAN_POINT ( 'NONE',  ( -14.69999999999999900, 22.70000000000000300, -1.600000000000000100 ) ) ;
#149 = VECTOR ( 'NONE', #336, 1000.000000000000000 ) ;
#150 = ADVANCED_FACE ( 'NONE', ( #202 ), #58, .F. ) ;
#151 = SURFACE_STYLE_USAGE ( .BOTH. , #13 ) ;
#152 = DIRECTION ( 'NONE',  ( -0.0000000000000000000, -0.0000000000000000000, -1.000000000000000000 ) ) ;
#153 = PRODUCT_DEFINITION ( 'UNKNOWN', '', #171, #105 ) ;
#154 =( NAMED_UNIT ( * ) PLANE_ANGLE_UNIT ( ) SI_UNIT ( $, .RADIAN. ) );
#155 = CARTESIAN_POINT ( 'NONE',  ( -14.90000000000000200, -23.00000000000000000, 0.0000000000000000000 ) ) ;
#156 = VECTOR ( 'NONE', #316, 1000.000000000000000 ) ;
#157 = ORIENTED_EDGE ( 'NONE', *, *, #300, .F. ) ;
#158 = DIRECTION ( 'NONE',  ( -0.0000000000000000000, -0.0000000000000000000, 1.000000000000000000 ) ) ;
#159 = FACE_OUTER_BOUND ( 'NONE', #227, .T. ) ;
#160 = EDGE_LOOP ( 'NONE', ( #218, #199, #297, #328 ) ) ;
#161 = CARTESIAN_POINT ( 'NONE',  ( 14.69999999999999900, 22.70000000000000300, 0.0000000000000000000 ) ) ;
#162 = DIRECTION ( 'NONE',  ( 0.0000000000000000000, -1.000000000000000000, 0.0000000000000000000 ) ) ;
#163 = CARTESIAN_POINT ( 'NONE',  ( 14.89999999999999900, 23.00000000000000000, 5.400000000000000400 ) ) ;
#164 = ORIENTED_EDGE ( 'NONE', *, *, #54, .T. ) ;
#165 = AXIS2_PLACEMENT_3D ( 'NONE', #277, #190, #340 ) ;
#166 = VECTOR ( 'NONE', #24, 1000.000000000000000 ) ;
#167 = VECTOR ( 'NONE', #124, 1000.000000000000000 ) ;
#168 = VERTEX_POINT ( 'NONE', #163 ) ;
#169 = STYLED_ITEM ( 'NONE', ( #119 ), #210 ) ;
#170 = EDGE_LOOP ( 'NONE', ( #89, #209, #174, #101 ) ) ;
#171 = PRODUCT_DEFINITION_FORMATION_WITH_SPECIFIED_SOURCE ( 'ANY', '', #140, .NOT_KNOWN. ) ;
#172 = FACE_OUTER_BOUND ( 'NONE', #160, .T. ) ;
#173 = CARTESIAN_POINT ( 'NONE',  ( 0.0000000000000000000, 0.0000000000000000000, 5.400000000000000400 ) ) ;
#174 = ORIENTED_EDGE ( 'NONE', *, *, #338, .F. ) ;
#175 = ORIENTED_EDGE ( 'NONE', *, *, #52, .T. ) ;
#176 = ADVANCED_FACE ( 'NONE', ( #258 ), #344, .F. ) ;
#177 = DIRECTION ( 'NONE',  ( 0.0000000000000000000, -1.000000000000000000, -0.0000000000000000000 ) ) ;
#178 = COLOUR_RGB ( '',0.7921568627450980000, 0.8196078431372548800, 0.9333333333333333500 ) ;
#179 = VERTEX_POINT ( 'NONE', #215 ) ;
#180 = LINE ( 'NONE', #102, #166 ) ;
#181 =( LENGTH_UNIT ( ) NAMED_UNIT ( * ) SI_UNIT ( .MILLI., .METRE. ) );
#182 =( NAMED_UNIT ( * ) PLANE_ANGLE_UNIT ( ) SI_UNIT ( $, .RADIAN. ) );
#183 = EDGE_LOOP ( 'NONE', ( #249, #60, #130, #2 ) ) ;
#184 = DIRECTION ( 'NONE',  ( 0.0000000000000000000, -0.0000000000000000000, 1.000000000000000000 ) ) ;
#185 = PLANE ( 'NONE',  #96 ) ;
#186 = EDGE_CURVE ( 'NONE', #59, #313, #214, .T. ) ;
#187 = DIRECTION ( 'NONE',  ( -1.000000000000000000, 0.0000000000000000000, 0.0000000000000000000 ) ) ;
#188 = EDGE_CURVE ( 'NONE', #273, #290, #321, .T. ) ;
#189 = DIRECTION ( 'NONE',  ( 1.000000000000000000, 0.0000000000000000000, 0.0000000000000000000 ) ) ;
#190 = DIRECTION ( 'NONE',  ( 0.0000000000000000000, 0.0000000000000000000, -1.000000000000000000 ) ) ;
#191 = EDGE_LOOP ( 'NONE', ( #175, #29, #216, #268 ) ) ;
#192 = ORIENTED_EDGE ( 'NONE', *, *, #270, .T. ) ;
#193 = PRODUCT_RELATED_PRODUCT_CATEGORY ( 'part', '', ( #140 ) ) ;
#194 = ORIENTED_EDGE ( 'NONE', *, *, #251, .F. ) ;
#195 = CLOSED_SHELL ( 'NONE', ( #150, #329, #40, #97, #299, #9, #226, #176, #121, #93, #65 ) ) ;
#196 = LINE ( 'NONE', #250, #79 ) ;
#197 = ORIENTED_EDGE ( 'NONE', *, *, #88, .F. ) ;
#198 = DIRECTION ( 'NONE',  ( -1.000000000000000000, 0.0000000000000000000, -0.0000000000000000000 ) ) ;
#199 = ORIENTED_EDGE ( 'NONE', *, *, #248, .F. ) ;
#200 = EDGE_CURVE ( 'NONE', #18, #179, #19, .T. ) ;
#201 = CARTESIAN_POINT ( 'NONE',  ( -14.90000000000000200, 23.00000000000000000, 5.400000000000000400 ) ) ;
#202 = FACE_OUTER_BOUND ( 'NONE', #137, .T. ) ;
#203 = AXIS2_PLACEMENT_3D ( 'NONE', #319, #162, #342 ) ;
#204 = LINE ( 'NONE', #17, #62 ) ;
#205 = DIRECTION ( 'NONE',  ( 1.000000000000000000, 0.0000000000000000000, 0.0000000000000000000 ) ) ;
#206 = PRESENTATION_STYLE_ASSIGNMENT (( #151 ) ) ;
#207 = FILL_AREA_STYLE ('',( #43 ) ) ;
#208 = DIRECTION ( 'NONE',  ( 1.000000000000000000, 0.0000000000000000000, 0.0000000000000000000 ) ) ;
#209 = ORIENTED_EDGE ( 'NONE', *, *, #341, .F. ) ;
#210 = MANIFOLD_SOLID_BREP ( 'Aufsatz-Linear austragen2', #195 ) ;
#211 = DIRECTION ( 'NONE',  ( -1.146293045799652500E-016, -1.000000000000000000, 0.0000000000000000000 ) ) ;
#212 = VECTOR ( 'NONE', #78, 1000.000000000000000 ) ;
#213 = CARTESIAN_POINT ( 'NONE',  ( -14.90000000000000200, -23.00000000000000000, 0.0000000000000000000 ) ) ;
#214 = LINE ( 'NONE', #27, #90 ) ;
#215 = CARTESIAN_POINT ( 'NONE',  ( -14.90000000000000200, -23.00000000000000000, 0.0000000000000000000 ) ) ;
#216 = ORIENTED_EDGE ( 'NONE', *, *, #188, .F. ) ;
#217 = EDGE_CURVE ( 'NONE', #103, #222, #331, .T. ) ;
#218 = ORIENTED_EDGE ( 'NONE', *, *, #200, .F. ) ;
#219 = EDGE_CURVE ( 'NONE', #222, #16, #204, .T. ) ;
#220 = LINE ( 'NONE', #318, #86 ) ;
#221 = ORIENTED_EDGE ( 'NONE', *, *, #302, .T. ) ;
#222 = VERTEX_POINT ( 'NONE', #314 ) ;
#223 = LINE ( 'NONE', #201, #84 ) ;
#224 = VECTOR ( 'NONE', #100, 1000.000000000000000 ) ;
#225 = CARTESIAN_POINT ( 'NONE',  ( 14.89999999999999900, 23.00000000000000000, 0.0000000000000000000 ) ) ;
#226 = ADVANCED_FACE ( 'NONE', ( #343 ), #185, .F. ) ;
#227 = EDGE_LOOP ( 'NONE', ( #334, #259, #70, #192 ) ) ;
#228 = DIRECTION ( 'NONE',  ( 1.000000000000000000, -0.0000000000000000000, -0.0000000000000000000 ) ) ;
#229 = UNCERTAINTY_MEASURE_WITH_UNIT (LENGTH_MEASURE( 1.000000000000000100E-005 ), #181, 'distance_accuracy_value', 'NONE');
#230 = PLANE ( 'NONE',  #116 ) ;
#231 = CARTESIAN_POINT ( 'NONE',  ( -14.90000000000000200, -23.00000000000000000, 5.400000000000000400 ) ) ;
#232 = ORIENTED_EDGE ( 'NONE', *, *, #324, .T. ) ;
#233 = CARTESIAN_POINT ( 'NONE',  ( -14.90000000000000200, -23.00000000000000000, 5.400000000000000400 ) ) ;
#234 = ORIENTED_EDGE ( 'NONE', *, *, #325, .T. ) ;
#235 = AXIS2_PLACEMENT_3D ( 'NONE', #253, #241, #279 ) ;
#236 = DIRECTION ( 'NONE',  ( -1.146293045799652500E-016, -1.000000000000000000, -0.0000000000000000000 ) ) ;
#237 = ORIENTED_EDGE ( 'NONE', *, *, #239, .F. ) ;
#238 = PLANE ( 'NONE',  #203 ) ;
#239 = EDGE_CURVE ( 'NONE', #36, #295, #265, .T. ) ;
#240 = CARTESIAN_POINT ( 'NONE',  ( 14.89999999999999900, -23.00000000000000000, 5.400000000000000400 ) ) ;
#241 = DIRECTION ( 'NONE',  ( 0.0000000000000000000, 0.0000000000000000000, -1.000000000000000000 ) ) ;
#242 = DIRECTION ( 'NONE',  ( 1.910488409666087300E-016, 1.000000000000000000, 0.0000000000000000000 ) ) ;
#243 = ORIENTED_EDGE ( 'NONE', *, *, #200, .T. ) ;
#244 = EDGE_LOOP ( 'NONE', ( #280, #47, #282, #234 ) ) ;
#245 = ORIENTED_EDGE ( 'NONE', *, *, #239, .T. ) ;
#246 = FACE_BOUND ( 'NONE', #170, .T. ) ;
#247 = ORIENTED_EDGE ( 'NONE', *, *, #219, .F. ) ;
#248 = EDGE_CURVE ( 'NONE', #313, #18, #95, .T. ) ;
#249 = ORIENTED_EDGE ( 'NONE', *, *, #300, .T. ) ;
#250 = CARTESIAN_POINT ( 'NONE',  ( -14.90000000000000200, -23.00000000000000000, 5.400000000000000400 ) ) ;
#251 = EDGE_CURVE ( 'NONE', #16, #118, #25, .T. ) ;
#252 = CARTESIAN_POINT ( 'NONE',  ( 14.89999999999999900, -23.00000000000000000, 5.400000000000000400 ) ) ;
#253 = CARTESIAN_POINT ( 'NONE',  ( 0.0000000000000000000, 0.0000000000000000000, 0.0000000000000000000 ) ) ;
#254 = PRESENTATION_LAYER_ASSIGNMENT (  '', '', ( #169 ) ) ;
#255 =( NAMED_UNIT ( * ) SI_UNIT ( $, .STERADIAN. ) SOLID_ANGLE_UNIT ( ) );
#256 = DIRECTION ( 'NONE',  ( 0.0000000000000000000, -0.0000000000000000000, 1.000000000000000000 ) ) ;
#257 = DIRECTION ( 'NONE',  ( 0.0000000000000000000, 1.000000000000000000, 0.0000000000000000000 ) ) ;
#258 = FACE_OUTER_BOUND ( 'NONE', #42, .T. ) ;
#259 = ORIENTED_EDGE ( 'NONE', *, *, #324, .F. ) ;
#260 = DIRECTION ( 'NONE',  ( 0.0000000000000000000, 1.000000000000000000, 0.0000000000000000000 ) ) ;
#261 = DIRECTION ( 'NONE',  ( -0.0000000000000000000, -0.0000000000000000000, 1.000000000000000000 ) ) ;
#262 = AXIS2_PLACEMENT_3D ( 'NONE', #315, #260, #184 ) ;
#263 = DIRECTION ( 'NONE',  ( 0.0000000000000000000, 1.000000000000000000, 0.0000000000000000000 ) ) ;
#264 = PLANE ( 'NONE',  #235 ) ;
#265 = LINE ( 'NONE', #14, #57 ) ;
#266 = CARTESIAN_POINT ( 'NONE',  ( -14.90000000000000200, -23.00000000000000000, 5.400000000000000400 ) ) ;
#267 = AXIS2_PLACEMENT_3D ( 'NONE', #50, #187, #108 ) ;
#268 = ORIENTED_EDGE ( 'NONE', *, *, #88, .T. ) ;
#269 = LINE ( 'NONE', #146, #139 ) ;
#270 = EDGE_CURVE ( 'NONE', #168, #313, #294, .T. ) ;
#271 = FACE_OUTER_BOUND ( 'NONE', #117, .T. ) ;
#272 = SURFACE_STYLE_FILL_AREA ( #207 ) ;
#273 = VERTEX_POINT ( 'NONE', #231 ) ;
#274 = CARTESIAN_POINT ( 'NONE',  ( 14.69999999999999900, 22.70000000000000300, -1.600000000000000100 ) ) ;
#275 = FILL_AREA_STYLE_COLOUR ( '', #113 ) ;
#276 = UNCERTAINTY_MEASURE_WITH_UNIT (LENGTH_MEASURE( 1.000000000000000100E-005 ), #308, 'distance_accuracy_value', 'NONE');
#277 = CARTESIAN_POINT ( 'NONE',  ( 0.0000000000000000000, 0.0000000000000000000, -1.600000000000000100 ) ) ;
#278 = APPLICATION_PROTOCOL_DEFINITION ( 'draft international standard', 'automotive_design', 1998, #71 ) ;
#279 = DIRECTION ( 'NONE',  ( -1.000000000000000000, 0.0000000000000000000, -0.0000000000000000000 ) ) ;
#280 = ORIENTED_EDGE ( 'NONE', *, *, #87, .T. ) ;
#281 = DIRECTION ( 'NONE',  ( -1.000000000000000000, 1.146293045799652500E-016, 0.0000000000000000000 ) ) ;
#282 = ORIENTED_EDGE ( 'NONE', *, *, #217, .F. ) ;
#283 = LINE ( 'NONE', #123, #296 ) ;
#284 = EDGE_CURVE ( 'NONE', #36, #103, #292, .T. ) ;
#285 = EDGE_CURVE ( 'NONE', #168, #82, #223, .T. ) ;
#286 = LINE ( 'NONE', #333, #147 ) ;
#287 = CARTESIAN_POINT ( 'NONE',  ( -14.90000000000000200, 23.00000000000000000, 0.0000000000000000000 ) ) ;
#288 = CARTESIAN_POINT ( 'NONE',  ( -14.69999999999999900, 22.70000000000000300, -1.600000000000000100 ) ) ;
#289 = MECHANICAL_DESIGN_GEOMETRIC_PRESENTATION_REPRESENTATION (  '', ( #169 ), #34 ) ;
#290 = VERTEX_POINT ( 'NONE', #252 ) ;
#291 = SURFACE_STYLE_FILL_AREA ( #305 ) ;
#292 = LINE ( 'NONE', #144, #94 ) ;
#293 = STYLED_ITEM ( 'NONE', ( #206 ), #51 ) ;
#294 = LINE ( 'NONE', #98, #326 ) ;
#295 = VERTEX_POINT ( 'NONE', #37 ) ;
#296 = VECTOR ( 'NONE', #38, 1000.000000000000000 ) ;
#297 = ORIENTED_EDGE ( 'NONE', *, *, #186, .F. ) ;
#298 = CARTESIAN_POINT ( 'NONE',  ( 14.69999999999999400, -22.69999999999999600, -0.0000000000000000000 ) ) ;
#299 = ADVANCED_FACE ( 'NONE', ( #22 ), #230, .F. ) ;
#300 = EDGE_CURVE ( 'NONE', #82, #273, #196, .T. ) ;
#301 = CARTESIAN_POINT ( 'NONE',  ( 14.69999999999999900, 22.70000000000000300, 0.0000000000000000000 ) ) ;
#302 = EDGE_CURVE ( 'NONE', #290, #59, #286, .T. ) ;
#303 = LINE ( 'NONE', #274, #31 ) ;
#304 = LINE ( 'NONE', #128, #33 ) ;
#305 = FILL_AREA_STYLE ('',( #275 ) ) ;
#306 = APPLICATION_PROTOCOL_DEFINITION ( 'draft international standard', 'automotive_design', 1998, #332 ) ;
#307 = PLANE ( 'NONE',  #267 ) ;
#308 =( LENGTH_UNIT ( ) NAMED_UNIT ( * ) SI_UNIT ( .MILLI., .METRE. ) );
#309 = EDGE_LOOP ( 'NONE', ( #1, #63, #322, #221 ) ) ;
#310 =( NAMED_UNIT ( * ) SI_UNIT ( $, .STERADIAN. ) SOLID_ANGLE_UNIT ( ) );
#311 = DIRECTION ( 'NONE',  ( 1.910488409666087300E-016, 1.000000000000000000, -0.0000000000000000000 ) ) ;
#312 = VECTOR ( 'NONE', #39, 1000.000000000000000 ) ;
#313 = VERTEX_POINT ( 'NONE', #225 ) ;
#314 = CARTESIAN_POINT ( 'NONE',  ( 14.69999999999999400, -22.69999999999999600, -1.600000000000000100 ) ) ;
#315 = CARTESIAN_POINT ( 'NONE',  ( -14.90000000000000200, -23.00000000000000000, 5.400000000000000400 ) ) ;
#316 = DIRECTION ( 'NONE',  ( -0.0000000000000000000, -0.0000000000000000000, 1.000000000000000000 ) ) ;
#317 = CARTESIAN_POINT ( 'NONE',  ( 14.89999999999999900, -23.00000000000000000, 0.0000000000000000000 ) ) ;
#318 = CARTESIAN_POINT ( 'NONE',  ( 14.69999999999999400, -22.69999999999999600, -1.600000000000000100 ) ) ;
#319 = CARTESIAN_POINT ( 'NONE',  ( -14.90000000000000200, 23.00000000000000000, 5.400000000000000400 ) ) ;
#320 = ORIENTED_EDGE ( 'NONE', *, *, #284, .F. ) ;
#321 = LINE ( 'NONE', #233, #66 ) ;
#322 = ORIENTED_EDGE ( 'NONE', *, *, #30, .F. ) ;
#323 = VERTEX_POINT ( 'NONE', #298 ) ;
#324 = EDGE_CURVE ( 'NONE', #82, #18, #269, .T. ) ;
#325 = EDGE_CURVE ( 'NONE', #103, #92, #303, .T. ) ;
#326 = VECTOR ( 'NONE', #152, 1000.000000000000000 ) ;
#327 = ORIENTED_EDGE ( 'NONE', *, *, #325, .F. ) ;
#328 = ORIENTED_EDGE ( 'NONE', *, *, #52, .F. ) ;
#329 = ADVANCED_FACE ( 'NONE', ( #75 ), #330, .F. ) ;
#330 = PLANE ( 'NONE',  #262 ) ;
#331 = LINE ( 'NONE', #74, #134 ) ;
#332 = APPLICATION_CONTEXT ( 'automotive_design' ) ;
#333 = CARTESIAN_POINT ( 'NONE',  ( 14.89999999999999900, -23.00000000000000000, 5.400000000000000400 ) ) ;
#334 = ORIENTED_EDGE ( 'NONE', *, *, #248, .T. ) ;
#335 = ORIENTED_EDGE ( 'NONE', *, *, #8, .T. ) ;
#336 = DIRECTION ( 'NONE',  ( -1.000000000000000000, -0.0000000000000000000, -0.0000000000000000000 ) ) ;
#337 = FACE_OUTER_BOUND ( 'NONE', #309, .T. ) ;
#338 = EDGE_CURVE ( 'NONE', #118, #295, #304, .T. ) ;
#339 = LINE ( 'NONE', #161, #167 ) ;
#340 = DIRECTION ( 'NONE',  ( -1.000000000000000000, 0.0000000000000000000, -0.0000000000000000000 ) ) ;
#341 = EDGE_CURVE ( 'NONE', #295, #92, #109, .T. ) ;
#342 = DIRECTION ( 'NONE',  ( 0.0000000000000000000, -0.0000000000000000000, -1.000000000000000000 ) ) ;
#343 = FACE_OUTER_BOUND ( 'NONE', #244, .T. ) ;
#344 = PLANE ( 'NONE',  #132 ) ;
ENDSEC;
END-ISO-10303-21;
